  0
SECTION
  2
HEADER
  9
$ACADVER
  1
AC1015
  9
$ACADMAINTVER
 70
     6
  9
$DWGCODEPAGE
  3
ANSI_1254
  9
$INSBASE
 10
0.0
 20
0.0
 30
0.0
  9
$EXTMIN
 10
0.0
 20
0.0
 30
0.0
  9
$EXTMAX
 10
279.4
 20
215.9
 30
0.0
  9
$LIMMIN
 10
0.0
 20
0.0
  9
$LIMMAX
 10
279.4
 20
215.9
  9
$ORTHOMODE
 70
     0
  9
$REGENMODE
 70
     1
  9
$FILLMODE
 70
     1
  9
$QTEXTMODE
 70
     0
  9
$MIRRTEXT
 70
     1
  9
$LTSCALE
 40
1.0
  9
$ATTMODE
 70
     1
  9
$TEXTSIZE
 40
3.5
  9
$TRACEWID
 40
1.0
  9
$TEXTSTYLE
  7
Standard
  9
$CLAYER
  8
0
  9
$CELTYPE
  6
ByLayer
  9
$CECOLOR
 62
   256
  9
$CELTSCALE
 40
1.0
  9
$DISPSILH
 70
     0
  9
$DIMSCALE
 40
1.0
  9
$DIMASZ
 40
3.5
  9
$DIMEXO
 40
1.0
  9
$DIMDLI
 40
3.75
  9
$DIMRND
 40
0.0
  9
$DIMDLE
 40
0.0
  9
$DIMEXE
 40
1.0
  9
$DIMTP
 40
0.0
  9
$DIMTM
 40
0.0
  9
$DIMTXT
 40
3.5
  9
$DIMCEN
 40
2.5
  9
$DIMTSZ
 40
0.0
  9
$DIMTOL
 70
     0
  9
$DIMLIM
 70
     0
  9
$DIMTIH
 70
     1
  9
$DIMTOH
 70
     1
  9
$DIMSE1
 70
     0
  9
$DIMSE2
 70
     0
  9
$DIMTAD
 70
     1
  9
$DIMZIN
 70
     0
  9
$DIMBLK
  1

  9
$DIMASO
 70
     1
  9
$DIMSHO
 70
     1
  9
$DIMPOST
  1

  9
$DIMAPOST
  1

  9
$DIMALT
 70
     0
  9
$DIMALTD
 70
     3
  9
$DIMALTF
 40
0.0393700787
  9
$DIMLFAC
 40
1.0
  9
$DIMTOFL
 70
     1
  9
$DIMTVP
 40
0.0
  9
$DIMTIX
 70
     0
  9
$DIMSOXD
 70
     0
  9
$DIMSAH
 70
     0
  9
$DIMBLK1
  1

  9
$DIMBLK2
  1

  9
$DIMSTYLE
  2
ISO-25
  9
$DIMCLRD
 70
     0
  9
$DIMCLRE
 70
     0
  9
$DIMCLRT
 70
     0
  9
$DIMTFAC
 40
1.0
  9
$DIMGAP
 40
1.524
  9
$DIMJUST
 70
     0
  9
$DIMSD1
 70
     0
  9
$DIMSD2
 70
     0
  9
$DIMTOLJ
 70
     0
  9
$DIMTZIN
 70
     0
  9
$DIMALTZ
 70
     0
  9
$DIMALTTZ
 70
     0
  9
$DIMUPT
 70
     0
  9
$DIMDEC
 70
     2
  9
$DIMTDEC
 70
     2
  9
$DIMALTU
 70
     2
  9
$DIMALTTD
 70
     3
  9
$DIMTXSTY
  7
Standard
  9
$DIMAUNIT
 70
     0
  9
$DIMADEC
 70
     2
  9
$DIMALTRND
 40
0.0
  9
$DIMAZIN
 70
     0
  9
$DIMDSEP
 70
    44
  9
$DIMATFIT
 70
     3
  9
$DIMFRAC
 70
     0
  9
$DIMLDRBLK
  1

  9
$DIMLUNIT
 70
     2
  9
$DIMLWD
 70
    -2
  9
$DIMLWE
 70
    -2
  9
$DIMTMOVE
 70
     0
  9
$LUNITS
 70
     2
  9
$LUPREC
 70
     2
  9
$SKETCHINC
 40
1.0
  9
$FILLETRAD
 40
10.0
  9
$AUNITS
 70
     0
  9
$AUPREC
 70
     2
  9
$MENU
  1
.
  9
$ELEVATION
 40
0.0
  9
$PELEVATION
 40
0.0
  9
$THICKNESS
 40
0.0
  9
$LIMCHECK
 70
     0
  9
$CHAMFERA
 40
0.0
  9
$CHAMFERB
 40
0.0
  9
$CHAMFERC
 40
0.0
  9
$CHAMFERD
 40
0.0
  9
$SKPOLY
 70
     0
  9
$TDCREATE
 40
2459741.592544618
  9
$TDUCREATE
 40
2459741.467544618
  9
$TDUPDATE
 40
2459741.592547118
  9
$TDUUPDATE
 40
2459741.467547118
  9
$TDINDWG
 40
0.0000000116
  9
$TDUSRTIMER
 40
0.0000000116
  9
$USRTIMER
 70
     1
  9
$ANGBASE
 50
0.0
  9
$ANGDIR
 70
     0
  9
$PDMODE
 70
     0
  9
$PDSIZE
 40
-1.0
  9
$PLINEWID
 40
0.0
  9
$SPLFRAME
 70
     0
  9
$SPLINETYPE
 70
     6
  9
$SPLINESEGS
 70
     8
  9
$HANDSEED
  5
1BC
  9
$SURFTAB1
 70
     6
  9
$SURFTAB2
 70
     6
  9
$SURFTYPE
 70
     6
  9
$SURFU
 70
     6
  9
$SURFV
 70
     6
  9
$UCSBASE
  2

  9
$UCSNAME
  2

  9
$UCSORG
 10
0.0
 20
0.0
 30
0.0
  9
$UCSXDIR
 10
1.0
 20
0.0
 30
0.0
  9
$UCSYDIR
 10
0.0
 20
1.0
 30
0.0
  9
$UCSORTHOREF
  2

  9
$UCSORTHOVIEW
 70
     0
  9
$UCSORGTOP
 10
0.0
 20
0.0
 30
0.0
  9
$UCSORGBOTTOM
 10
0.0
 20
0.0
 30
0.0
  9
$UCSORGLEFT
 10
0.0
 20
0.0
 30
0.0
  9
$UCSORGRIGHT
 10
0.0
 20
0.0
 30
0.0
  9
$UCSORGFRONT
 10
0.0
 20
0.0
 30
0.0
  9
$UCSORGBACK
 10
0.0
 20
0.0
 30
0.0
  9
$PUCSBASE
  2

  9
$PUCSNAME
  2

  9
$PUCSORG
 10
0.0
 20
0.0
 30
0.0
  9
$PUCSXDIR
 10
1.0
 20
0.0
 30
0.0
  9
$PUCSYDIR
 10
0.0
 20
1.0
 30
0.0
  9
$PUCSORTHOREF
  2

  9
$PUCSORTHOVIEW
 70
     0
  9
$PUCSORGTOP
 10
0.0
 20
0.0
 30
0.0
  9
$PUCSORGBOTTOM
 10
0.0
 20
0.0
 30
0.0
  9
$PUCSORGLEFT
 10
0.0
 20
0.0
 30
0.0
  9
$PUCSORGRIGHT
 10
0.0
 20
0.0
 30
0.0
  9
$PUCSORGFRONT
 10
0.0
 20
0.0
 30
0.0
  9
$PUCSORGBACK
 10
0.0
 20
0.0
 30
0.0
  9
$USERI1
 70
     0
  9
$USERI2
 70
     0
  9
$USERI3
 70
     0
  9
$USERI4
 70
     0
  9
$USERI5
 70
     0
  9
$USERR1
 40
0.0
  9
$USERR2
 40
0.0
  9
$USERR3
 40
0.0
  9
$USERR4
 40
0.0
  9
$USERR5
 40
0.0
  9
$WORLDVIEW
 70
     1
  9
$SHADEDGE
 70
     3
  9
$SHADEDIF
 70
    70
  9
$TILEMODE
 70
     1
  9
$MAXACTVP
 70
    64
  9
$PINSBASE
 10
0.0
 20
0.0
 30
0.0
  9
$PLIMCHECK
 70
     0
  9
$PEXTMIN
 10
1.0000000000E+20
 20
1.0000000000E+20
 30
1.0000000000E+20
  9
$PEXTMAX
 10
-1.0000000000E+20
 20
-1.0000000000E+20
 30
-1.0000000000E+20
  9
$PLIMMIN
 10
0.0
 20
0.0
  9
$PLIMMAX
 10
420.0
 20
297.0
  9
$UNITMODE
 70
     0
  9
$VISRETAIN
 70
     1
  9
$PLINEGEN
 70
     0
  9
$PSLTSCALE
 70
     1
  9
$TREEDEPTH
 70
  3020
  9
$CMLSTYLE
  2
Standard
  9
$CMLJUST
 70
     0
  9
$CMLSCALE
 40
20.0
  9
$PROXYGRAPHICS
 70
     1
  9
$MEASUREMENT
 70
     1
  9
$CELWEIGHT
370
    -1
  9
$ENDCAPS
280
     0
  9
$JOINSTYLE
280
     0
  9
$LWDISPLAY
290
     1
  9
$INSUNITS
 70
     4
  9
$HYPERLINKBASE
  1

  9
$STYLESHEET
  1

  9
$XEDIT
290
     1
  9
$CEPSNTYPE
380
     0
  9
$PSTYLEMODE
290
     1
  9
$FINGERPRINTGUID
  2
{abc0b920-8cac-4823-af98-cf37ffc514b2}
  9
$VERSIONGUID
  2
{FAEB1C32-E019-11D5-929B-00C0DF256EC4}
  9
$EXTNAMES
290
     1
  9
$PSVPSCALE
 40
0.0
  9
$OLESTARTUP
290
     0
  0
ENDSEC
  0
SECTION
  2
CLASSES
  0
CLASS
  1
ACDBDICTIONARYWDFLT
  2
AcDbDictionaryWithDefault
  3
ObjectDBX Classes
 90
        0
280
     0
281
     0
  0
CLASS
  1
VISUALSTYLE
  2
AcDbVisualStyle
  3
ObjectDBX Classes
 90
     4095
280
     0
281
     0
  0
CLASS
  1
MATERIAL
  2
AcDbMaterial
  3
ObjectDBX Classes
 90
     1153
280
     0
281
     0
  0
CLASS
  1
SCALE
  2
AcDbScale
  3
ObjectDBX Classes
 90
     1153
280
     0
281
     0
  0
CLASS
  1
TABLESTYLE
  2
AcDbTableStyle
  3
ObjectDBX Classes
 90
     4095
280
     0
281
     0
  0
CLASS
  1
MLEADERSTYLE
  2
AcDbMLeaderStyle
  3
ACDB_MLEADERSTYLE_CLASS
 90
     4095
280
     0
281
     0
  0
CLASS
  1
SUN
  2
AcDbSun
  3
SCENEOE
 90
     1153
280
     0
281
     0
  0
CLASS
  1
ACDBPLACEHOLDER
  2
AcDbPlaceHolder
  3
ObjectDBX Classes
 90
        0
280
     0
281
     0
  0
CLASS
  1
LAYOUT
  2
AcDbLayout
  3
ObjectDBX Classes
 90
        0
280
     0
281
     0
  0
ENDSEC
  0
SECTION
  2
TABLES
  0
TABLE
  2
VPORT
  5
8
330
0
100
AcDbSymbolTable
 70
     1
  0
VPORT
  5
29
330
8
100
AcDbSymbolTableRecord
100
AcDbViewportTableRecord
  2
*Active
 70
     0
 10
0.0
 20
0.0
 11
1.0
 21
1.0
 12
139.7
 22
107.95
 13
0.0
 23
0.0
 14
10.0
 24
10.0
 15
10.0
 25
10.0
 16
0.0
 26
0.0
 36
1.0
 17
0.0
 27
0.0
 37
0.0
 40
215.9
 41
1.2941176471
 42
50.0
 43
0.0
 44
0.0
 50
0.0
 51
0.0
 71
     0
 72
  2000
 73
     1
 74
     3
 75
     0
 76
     0
 77
     0
 78
     0
281
     0
 65
     1
110
0.0
120
0.0
130
0.0
111
1.0
121
0.0
131
0.0
112
0.0
122
1.0
132
0.0
 79
     0
146
0.0
  0
ENDTAB
  0
TABLE
  2
LTYPE
  5
5
330
0
100
AcDbSymbolTable
 70
     6
  0
LTYPE
  5
14
330
5
100
AcDbSymbolTableRecord
100
AcDbLinetypeTableRecord
  2
ByBlock
 70
     0
  3

 72
    65
 73
     0
 40
0.0
  0
LTYPE
  5
15
330
5
100
AcDbSymbolTableRecord
100
AcDbLinetypeTableRecord
  2
ByLayer
 70
     0
  3

 72
    65
 73
     0
 40
0.0
  0
LTYPE
  5
16
330
5
100
AcDbSymbolTableRecord
100
AcDbLinetypeTableRecord
  2
Continuous
 70
     0
  3
Solid line
 72
    65
 73
     0
 40
0.0
  0
LTYPE
  5
6E
330
5
100
AcDbSymbolTableRecord
100
AcDbLinetypeTableRecord
  2
HIDDEN
 70
     0
  3
Hidden __ __ __ __ __ __ __ __ __ __ __ __ __ __
 72
    65
 73
     2
 40
1.905
 49
1.27
 74
     0
 49
-0.635
 74
     0
  0
LTYPE
  5
6F
330
5
100
AcDbSymbolTableRecord
100
AcDbLinetypeTableRecord
  2
PHANTOM
 70
     0
  3
Phantom ______  __  __  ______  __  __  ______
 72
    65
 73
     6
 40
12.7
 49
6.35
 74
     0
 49
-1.27
 74
     0
 49
1.27
 74
     0
 49
-1.27
 74
     0
 49
1.27
 74
     0
 49
-1.27
 74
     0
  0
LTYPE
  5
70
330
5
100
AcDbSymbolTableRecord
100
AcDbLinetypeTableRecord
  2
CENTER
 70
     0
  3
Center ____ _ ____ _ ____ _ ____ _ ____ _ ____
 72
    65
 73
     4
 40
10.16
 49
6.35
 74
     0
 49
-1.27
 74
     0
 49
1.27
 74
     0
 49
-1.27
 74
     0
  0
LTYPE
  5
71
330
5
100
AcDbSymbolTableRecord
100
AcDbLinetypeTableRecord
  2
CENTERX2
 70
     0
  3
Center (2x) ________  __  ________  __  _____
 72
    65
 73
     4
 40
20.32
 49
12.7
 74
     0
 49
-2.54
 74
     0
 49
2.54
 74
     0
 49
-2.54
 74
     0
  0
LTYPE
  5
72
330
5
100
AcDbSymbolTableRecord
100
AcDbLinetypeTableRecord
  2
DOT2
 70
     0
  3
Dot (.5x) ........................................
 72
    65
 73
     2
 40
0.635
 49
0.0
 74
     0
 49
-0.635
 74
     0
  0
ENDTAB
  0
TABLE
  2
LAYER
  5
2
330
0
100
AcDbSymbolTable
 70
    17
  0
LAYER
  5
10
330
2
100
AcDbSymbolTableRecord
100
AcDbLayerTableRecord
  2
0
 70
     0
 62
     7
  6
Continuous
370
    -3
390
F
  0
LAYER
  5
73
330
2
100
AcDbSymbolTableRecord
100
AcDbLayerTableRecord
  2
FORMAT
 70
     0
 62
     7
  6
Continuous
370
    -3
390
F
  0
LAYER
  5
74
330
2
100
AcDbSymbolTableRecord
100
AcDbLayerTableRecord
  2
YARDIMCI_GEOMETRI
 70
     0
 62
    -6
  6
Continuous
290
     0
370
    -3
390
F
  0
LAYER
  5
75
330
2
100
AcDbSymbolTableRecord
100
AcDbLayerTableRecord
  2
SAYFA_CERCEVESI
 70
     0
 62
     7
  6
Continuous
370
    25
390
F
  0
LAYER
  5
76
330
2
100
AcDbSymbolTableRecord
100
AcDbLayerTableRecord
  2
ANTET
 70
     0
 62
     7
  6
Continuous
370
    -3
390
F
  0
LAYER
  5
77
330
2
100
AcDbSymbolTableRecord
100
AcDbLayerTableRecord
  2
OLCU
 70
     0
 62
   150
  6
Continuous
370
    -3
390
F
  0
LAYER
  5
78
330
2
100
AcDbSymbolTableRecord
100
AcDbLayerTableRecord
  2
METIN
 70
     0
 62
    96
  6
Continuous
370
    -3
390
F
  0
LAYER
  5
79
330
2
100
AcDbSymbolTableRecord
100
AcDbLayerTableRecord
  2
BALON
 70
     0
 62
     5
  6
Continuous
370
    -3
390
F
  0
LAYER
  5
7A
330
2
100
AcDbSymbolTableRecord
100
AcDbLayerTableRecord
  2
VURGU
 70
     0
 62
     7
  6
Continuous
370
    -3
390
F
  0
LAYER
  5
7B
330
2
100
AcDbSymbolTableRecord
100
AcDbLayerTableRecord
  2
SILIK
 70
     0
 62
     7
  6
Continuous
370
    -3
390
F
  0
LAYER
  5
7C
330
2
100
AcDbSymbolTableRecord
100
AcDbLayerTableRecord
  2
MODEL
 70
     0
 62
     7
  6
Continuous
370
    -3
390
F
  0
LAYER
  5
7D
330
2
100
AcDbSymbolTableRecord
100
AcDbLayerTableRecord
  2
DETAYLANDıRMA
 70
     0
 62
   190
  6
Continuous
370
    -3
390
F
  0
LAYER
  5
7E
330
2
100
AcDbSymbolTableRecord
100
AcDbLayerTableRecord
  2
TOLERANS
 70
     0
 62
   230
  6
Continuous
370
    -3
390
F
  0
LAYER
  5
7F
330
2
100
AcDbSymbolTableRecord
100
AcDbLayerTableRecord
  2
MERKEZ_CIZGILERI
 70
     0
 62
    30
  6
Continuous
370
    -3
390
F
  0
LAYER
  5
80
330
2
100
AcDbSymbolTableRecord
100
AcDbLayerTableRecord
  2
KESIT-DETAY_CIZGILERI
 70
     0
 62
     7
  6
Continuous
370
    -3
390
F
  0
LAYER
  5
81
330
2
100
AcDbSymbolTableRecord
100
AcDbLayerTableRecord
  2
\U+041E\U+0421\U+0415\U+0412\U+042B\U+0415
 70
     0
 62
     7
  6
Continuous
370
    -3
390
F
  0
LAYER
  5
82
330
2
100
AcDbSymbolTableRecord
100
AcDbLayerTableRecord
  2
\U+0412\U+041E\U+0414\U+042F\U+041D\U+042B\U+0415_\U+0417\U+041D\U+0410\U+041A\U+0418
 70
     0
 62
    11
  6
Continuous
370
    -3
390
F
  0
ENDTAB
  0
TABLE
  2
STYLE
  5
3
330
0
100
AcDbSymbolTable
 70
     1
  0
STYLE
  5
11
330
3
100
AcDbSymbolTableRecord
100
AcDbTextStyleTableRecord
  2
Standard
 70
     0
 40
0.0
 41
1.0
 50
0.0
 71
     0
 42
3.5
  3
txt
  4

  0
ENDTAB
  0
TABLE
  2
VIEW
  5
6
330
0
100
AcDbSymbolTable
 70
     0
  0
ENDTAB
  0
TABLE
  2
UCS
  5
7
330
0
100
AcDbSymbolTable
 70
     0
  0
ENDTAB
  0
TABLE
  2
APPID
  5
9
330
0
100
AcDbSymbolTable
 70
     1
  0
APPID
  5
12
330
9
100
AcDbSymbolTableRecord
100
AcDbRegAppTableRecord
  2
ACAD
 70
     0
  0
ENDTAB
  0
TABLE
  2
DIMSTYLE
  5
A
330
0
100
AcDbSymbolTable
 70
     1
100
AcDbDimStyleTable
  0
DIMSTYLE
105
27
330
A
100
AcDbSymbolTableRecord
100
AcDbDimStyleTableRecord
  2
ISO-25
 70
     0
 41
2.5
 42
0.625
 43
3.75
 44
1.25
 73
     0
 74
     0
 77
     1
 78
     8
140
2.5
141
2.5
143
0.0393700787
147
0.625
171
     3
172
     1
178
     0
271
     2
272
     2
274
     3
278
    44
283
     0
284
     8
340
11
  0
ENDTAB
  0
TABLE
  2
BLOCK_RECORD
  5
1
330
0
100
AcDbSymbolTable
 70
    14
  0
BLOCK_RECORD
  5
1F
330
1
100
AcDbSymbolTableRecord
100
AcDbBlockTableRecord
  2
*Model_Space
340
22
  0
BLOCK_RECORD
  5
1B
330
1
100
AcDbSymbolTableRecord
100
AcDbBlockTableRecord
  2
*Paper_Space
340
1E
  0
BLOCK_RECORD
  5
23
330
1
100
AcDbSymbolTableRecord
100
AcDbBlockTableRecord
  2
*Paper_Space0
340
26
  0
BLOCK_RECORD
  5
9F
330
1
100
AcDbSymbolTableRecord
100
AcDbBlockTableRecord
  2
SW_CENTERMARKSYMBOL_0
340
0
102
{BLKREFS
331
AA
102
}
  0
BLOCK_RECORD
  5
AB
330
1
100
AcDbSymbolTableRecord
100
AcDbBlockTableRecord
  2
SW_CENTERMARKSYMBOL_1
340
0
102
{BLKREFS
331
B6
102
}
  0
BLOCK_RECORD
  5
B7
330
1
100
AcDbSymbolTableRecord
100
AcDbBlockTableRecord
  2
SW_CENTERMARKSYMBOL_2
340
0
102
{BLKREFS
331
C2
102
}
  0
BLOCK_RECORD
  5
C3
330
1
100
AcDbSymbolTableRecord
100
AcDbBlockTableRecord
  2
SW_CENTERMARKSYMBOL_3
340
0
102
{BLKREFS
331
CE
102
}
  0
BLOCK_RECORD
  5
CF
330
1
100
AcDbSymbolTableRecord
100
AcDbBlockTableRecord
  2
SW_CENTERMARKSYMBOL_4
340
0
102
{BLKREFS
331
DA
102
}
  0
BLOCK_RECORD
  5
DB
330
1
100
AcDbSymbolTableRecord
100
AcDbBlockTableRecord
  2
SW_CENTERMARKSYMBOL_5
340
0
102
{BLKREFS
331
E6
102
}
  0
BLOCK_RECORD
  5
E7
330
1
100
AcDbSymbolTableRecord
100
AcDbBlockTableRecord
  2
SW_CENTERMARKSYMBOL_6
340
0
102
{BLKREFS
331
F2
102
}
  0
BLOCK_RECORD
  5
F3
330
1
100
AcDbSymbolTableRecord
100
AcDbBlockTableRecord
  2
SW_CENTERMARKSYMBOL_7
340
0
102
{BLKREFS
331
FE
102
}
  0
BLOCK_RECORD
  5
FF
330
1
100
AcDbSymbolTableRecord
100
AcDbBlockTableRecord
  2
SW_CENTERMARKSYMBOL_8
340
0
102
{BLKREFS
331
10A
102
}
  0
BLOCK_RECORD
  5
10B
330
1
100
AcDbSymbolTableRecord
100
AcDbBlockTableRecord
  2
SW_CENTERMARKSYMBOL_9
340
0
102
{BLKREFS
331
116
102
}
  0
BLOCK_RECORD
  5
117
330
1
100
AcDbSymbolTableRecord
100
AcDbBlockTableRecord
  2
SW_CENTERMARKSYMBOL_10
340
0
102
{BLKREFS
331
122
102
}
  0
BLOCK_RECORD
  5
123
330
1
100
AcDbSymbolTableRecord
100
AcDbBlockTableRecord
  2
SW_CENTERMARKSYMBOL_11
340
0
102
{BLKREFS
331
12E
102
}
  0
BLOCK_RECORD
  5
12F
330
1
100
AcDbSymbolTableRecord
100
AcDbBlockTableRecord
  2
SW_CENTERMARKSYMBOL_12
340
0
102
{BLKREFS
331
13A
102
}
  0
ENDTAB
  0
ENDSEC
  0
SECTION
  2
BLOCKS
  0
BLOCK
  5
20
330
1F
100
AcDbEntity
  8
0
100
AcDbBlockBegin
  2
*Model_Space
 70
     0
 10
0.0
 20
0.0
 30
0.0
  3
*Model_Space
  1

  0
ENDBLK
  5
21
330
1F
100
AcDbEntity
  8
0
100
AcDbBlockEnd
  0
BLOCK
  5
1C
330
1B
100
AcDbEntity
 67
     1
  8
0
100
AcDbBlockBegin
  2
*Paper_Space
 70
     0
 10
0.0
 20
0.0
 30
0.0
  3
*Paper_Space
  1

  0
ENDBLK
  5
1D
330
1B
100
AcDbEntity
 67
     1
  8
0
100
AcDbBlockEnd
  0
BLOCK
  5
24
330
23
100
AcDbEntity
  8
0
100
AcDbBlockBegin
  2
*Paper_Space0
 70
     0
 10
0.0
 20
0.0
 30
0.0
  3
*Paper_Space0
  1

  0
ENDBLK
  5
25
330
23
100
AcDbEntity
  8
0
100
AcDbBlockEnd
  0
BLOCK
  5
A0
330
9F
100
AcDbEntity
  8
0
100
AcDbBlockBegin
  2
SW_CENTERMARKSYMBOL_0
 70
     0
 10
0.0
 20
0.0
 30
0.0
  3
SW_CENTERMARKSYMBOL_0
  1

  0
LINE
  5
A2
330
9F
100
AcDbEntity
  8
FORMAT
 62
     0
100
AcDbLine
 10
0.0
 20
0.0
 30
0.0
 11
0.0
 21
2.5
 31
0.0
  0
LINE
  5
A3
330
9F
100
AcDbEntity
  8
FORMAT
 62
     0
100
AcDbLine
 10
0.0
 20
0.0
 30
0.0
 11
-2.5
 21
0.0
 31
0.0
  0
LINE
  5
A4
330
9F
100
AcDbEntity
  8
FORMAT
 62
     0
100
AcDbLine
 10
0.0
 20
0.0
 30
0.0
 11
0.0
 21
-2.5
 31
0.0
  0
LINE
  5
A5
330
9F
100
AcDbEntity
  8
FORMAT
 62
     0
100
AcDbLine
 10
0.0
 20
0.0
 30
0.0
 11
2.5
 21
0.0
 31
0.0
  0
LINE
  5
A6
330
9F
100
AcDbEntity
  8
FORMAT
 62
     0
100
AcDbLine
 10
0.0
 20
5.0
 30
0.0
 11
0.0
 21
212.0
 31
0.0
  0
LINE
  5
A7
330
9F
100
AcDbEntity
  8
FORMAT
 62
     0
100
AcDbLine
 10
-5.0
 20
0.0
 30
0.0
 11
-212.0
 21
0.0
 31
0.0
  0
LINE
  5
A8
330
9F
100
AcDbEntity
  8
FORMAT
 62
     0
100
AcDbLine
 10
0.0
 20
-5.0
 30
0.0
 11
0.0
 21
-212.0
 31
0.0
  0
LINE
  5
A9
330
9F
100
AcDbEntity
  8
FORMAT
 62
     0
100
AcDbLine
 10
5.0
 20
0.0
 30
0.0
 11
212.0
 21
0.0
 31
0.0
  0
ENDBLK
  5
A1
330
9F
100
AcDbEntity
  8
0
100
AcDbBlockEnd
  0
BLOCK
  5
AC
330
AB
100
AcDbEntity
  8
0
100
AcDbBlockBegin
  2
SW_CENTERMARKSYMBOL_1
 70
     0
 10
0.0
 20
0.0
 30
0.0
  3
SW_CENTERMARKSYMBOL_1
  1

  0
LINE
  5
AE
330
AB
100
AcDbEntity
  8
FORMAT
 62
     0
100
AcDbLine
 10
0.0
 20
0.0
 30
0.0
 11
0.0
 21
2.5
 31
0.0
  0
LINE
  5
AF
330
AB
100
AcDbEntity
  8
FORMAT
 62
     0
100
AcDbLine
 10
0.0
 20
0.0
 30
0.0
 11
-2.5
 21
0.0
 31
0.0
  0
LINE
  5
B0
330
AB
100
AcDbEntity
  8
FORMAT
 62
     0
100
AcDbLine
 10
0.0
 20
0.0
 30
0.0
 11
0.0
 21
-2.5
 31
0.0
  0
LINE
  5
B1
330
AB
100
AcDbEntity
  8
FORMAT
 62
     0
100
AcDbLine
 10
0.0
 20
0.0
 30
0.0
 11
2.5
 21
0.0
 31
0.0
  0
LINE
  5
B2
330
AB
100
AcDbEntity
  8
FORMAT
 62
     0
100
AcDbLine
 10
0.0
 20
5.0
 30
0.0
 11
0.0
 21
15.5
 31
0.0
  0
LINE
  5
B3
330
AB
100
AcDbEntity
  8
FORMAT
 62
     0
100
AcDbLine
 10
-5.0
 20
0.0
 30
0.0
 11
-15.5
 21
0.0
 31
0.0
  0
LINE
  5
B4
330
AB
100
AcDbEntity
  8
FORMAT
 62
     0
100
AcDbLine
 10
0.0
 20
-5.0
 30
0.0
 11
0.0
 21
-15.5
 31
0.0
  0
LINE
  5
B5
330
AB
100
AcDbEntity
  8
FORMAT
 62
     0
100
AcDbLine
 10
5.0
 20
0.0
 30
0.0
 11
15.5
 21
0.0
 31
0.0
  0
ENDBLK
  5
AD
330
AB
100
AcDbEntity
  8
0
100
AcDbBlockEnd
  0
BLOCK
  5
B8
330
B7
100
AcDbEntity
  8
0
100
AcDbBlockBegin
  2
SW_CENTERMARKSYMBOL_2
 70
     0
 10
0.0
 20
0.0
 30
0.0
  3
SW_CENTERMARKSYMBOL_2
  1

  0
LINE
  5
BA
330
B7
100
AcDbEntity
  8
FORMAT
 62
     0
100
AcDbLine
 10
0.0
 20
0.0
 30
0.0
 11
0.0
 21
2.5
 31
0.0
  0
LINE
  5
BB
330
B7
100
AcDbEntity
  8
FORMAT
 62
     0
100
AcDbLine
 10
0.0
 20
0.0
 30
0.0
 11
-2.5
 21
0.0
 31
0.0
  0
LINE
  5
BC
330
B7
100
AcDbEntity
  8
FORMAT
 62
     0
100
AcDbLine
 10
0.0
 20
0.0
 30
0.0
 11
0.0
 21
-2.5
 31
0.0
  0
LINE
  5
BD
330
B7
100
AcDbEntity
  8
FORMAT
 62
     0
100
AcDbLine
 10
0.0
 20
0.0
 30
0.0
 11
2.5
 21
0.0
 31
0.0
  0
LINE
  5
BE
330
B7
100
AcDbEntity
  8
FORMAT
 62
     0
100
AcDbLine
 10
0.0
 20
5.0
 30
0.0
 11
0.0
 21
15.5
 31
0.0
  0
LINE
  5
BF
330
B7
100
AcDbEntity
  8
FORMAT
 62
     0
100
AcDbLine
 10
-5.0
 20
0.0
 30
0.0
 11
-15.5
 21
0.0
 31
0.0
  0
LINE
  5
C0
330
B7
100
AcDbEntity
  8
FORMAT
 62
     0
100
AcDbLine
 10
0.0
 20
-5.0
 30
0.0
 11
0.0
 21
-15.5
 31
0.0
  0
LINE
  5
C1
330
B7
100
AcDbEntity
  8
FORMAT
 62
     0
100
AcDbLine
 10
5.0
 20
0.0
 30
0.0
 11
15.5
 21
0.0
 31
0.0
  0
ENDBLK
  5
B9
330
B7
100
AcDbEntity
  8
0
100
AcDbBlockEnd
  0
BLOCK
  5
C4
330
C3
100
AcDbEntity
  8
0
100
AcDbBlockBegin
  2
SW_CENTERMARKSYMBOL_3
 70
     0
 10
0.0
 20
0.0
 30
0.0
  3
SW_CENTERMARKSYMBOL_3
  1

  0
LINE
  5
C6
330
C3
100
AcDbEntity
  8
FORMAT
 62
     0
100
AcDbLine
 10
0.0
 20
0.0
 30
0.0
 11
0.0
 21
2.5
 31
0.0
  0
LINE
  5
C7
330
C3
100
AcDbEntity
  8
FORMAT
 62
     0
100
AcDbLine
 10
0.0
 20
0.0
 30
0.0
 11
-2.5
 21
0.0
 31
0.0
  0
LINE
  5
C8
330
C3
100
AcDbEntity
  8
FORMAT
 62
     0
100
AcDbLine
 10
0.0
 20
0.0
 30
0.0
 11
0.0
 21
-2.5
 31
0.0
  0
LINE
  5
C9
330
C3
100
AcDbEntity
  8
FORMAT
 62
     0
100
AcDbLine
 10
0.0
 20
0.0
 30
0.0
 11
2.5
 21
0.0
 31
0.0
  0
LINE
  5
CA
330
C3
100
AcDbEntity
  8
FORMAT
 62
     0
100
AcDbLine
 10
0.0
 20
5.0
 30
0.0
 11
0.0
 21
15.5
 31
0.0
  0
LINE
  5
CB
330
C3
100
AcDbEntity
  8
FORMAT
 62
     0
100
AcDbLine
 10
-5.0
 20
0.0
 30
0.0
 11
-15.5
 21
0.0
 31
0.0
  0
LINE
  5
CC
330
C3
100
AcDbEntity
  8
FORMAT
 62
     0
100
AcDbLine
 10
0.0
 20
-5.0
 30
0.0
 11
0.0
 21
-15.5
 31
0.0
  0
LINE
  5
CD
330
C3
100
AcDbEntity
  8
FORMAT
 62
     0
100
AcDbLine
 10
5.0
 20
0.0
 30
0.0
 11
15.5
 21
0.0
 31
0.0
  0
ENDBLK
  5
C5
330
C3
100
AcDbEntity
  8
0
100
AcDbBlockEnd
  0
BLOCK
  5
D0
330
CF
100
AcDbEntity
  8
0
100
AcDbBlockBegin
  2
SW_CENTERMARKSYMBOL_4
 70
     0
 10
0.0
 20
0.0
 30
0.0
  3
SW_CENTERMARKSYMBOL_4
  1

  0
LINE
  5
D2
330
CF
100
AcDbEntity
  8
FORMAT
 62
     0
100
AcDbLine
 10
0.0
 20
0.0
 30
0.0
 11
0.0
 21
2.5
 31
0.0
  0
LINE
  5
D3
330
CF
100
AcDbEntity
  8
FORMAT
 62
     0
100
AcDbLine
 10
0.0
 20
0.0
 30
0.0
 11
-2.5
 21
0.0
 31
0.0
  0
LINE
  5
D4
330
CF
100
AcDbEntity
  8
FORMAT
 62
     0
100
AcDbLine
 10
0.0
 20
0.0
 30
0.0
 11
0.0
 21
-2.5
 31
0.0
  0
LINE
  5
D5
330
CF
100
AcDbEntity
  8
FORMAT
 62
     0
100
AcDbLine
 10
0.0
 20
0.0
 30
0.0
 11
2.5
 21
0.0
 31
0.0
  0
LINE
  5
D6
330
CF
100
AcDbEntity
  8
FORMAT
 62
     0
100
AcDbLine
 10
0.0
 20
5.0
 30
0.0
 11
0.0
 21
15.5
 31
0.0
  0
LINE
  5
D7
330
CF
100
AcDbEntity
  8
FORMAT
 62
     0
100
AcDbLine
 10
-5.0
 20
0.0
 30
0.0
 11
-15.5
 21
0.0
 31
0.0
  0
LINE
  5
D8
330
CF
100
AcDbEntity
  8
FORMAT
 62
     0
100
AcDbLine
 10
0.0
 20
-5.0
 30
0.0
 11
0.0
 21
-15.5
 31
0.0
  0
LINE
  5
D9
330
CF
100
AcDbEntity
  8
FORMAT
 62
     0
100
AcDbLine
 10
5.0
 20
0.0
 30
0.0
 11
15.5
 21
0.0
 31
0.0
  0
ENDBLK
  5
D1
330
CF
100
AcDbEntity
  8
0
100
AcDbBlockEnd
  0
BLOCK
  5
DC
330
DB
100
AcDbEntity
  8
0
100
AcDbBlockBegin
  2
SW_CENTERMARKSYMBOL_5
 70
     0
 10
0.0
 20
0.0
 30
0.0
  3
SW_CENTERMARKSYMBOL_5
  1

  0
LINE
  5
DE
330
DB
100
AcDbEntity
  8
FORMAT
 62
     0
100
AcDbLine
 10
0.0
 20
0.0
 30
0.0
 11
0.0
 21
2.5
 31
0.0
  0
LINE
  5
DF
330
DB
100
AcDbEntity
  8
FORMAT
 62
     0
100
AcDbLine
 10
0.0
 20
0.0
 30
0.0
 11
-2.5
 21
0.0
 31
0.0
  0
LINE
  5
E0
330
DB
100
AcDbEntity
  8
FORMAT
 62
     0
100
AcDbLine
 10
0.0
 20
0.0
 30
0.0
 11
0.0
 21
-2.5
 31
0.0
  0
LINE
  5
E1
330
DB
100
AcDbEntity
  8
FORMAT
 62
     0
100
AcDbLine
 10
0.0
 20
0.0
 30
0.0
 11
2.5
 21
0.0
 31
0.0
  0
LINE
  5
E2
330
DB
100
AcDbEntity
  8
FORMAT
 62
     0
100
AcDbLine
 10
0.0
 20
5.0
 30
0.0
 11
0.0
 21
16.5
 31
0.0
  0
LINE
  5
E3
330
DB
100
AcDbEntity
  8
FORMAT
 62
     0
100
AcDbLine
 10
-5.0
 20
0.0
 30
0.0
 11
-16.5
 21
0.0
 31
0.0
  0
LINE
  5
E4
330
DB
100
AcDbEntity
  8
FORMAT
 62
     0
100
AcDbLine
 10
0.0
 20
-5.0
 30
0.0
 11
0.0
 21
-16.5
 31
0.0
  0
LINE
  5
E5
330
DB
100
AcDbEntity
  8
FORMAT
 62
     0
100
AcDbLine
 10
5.0
 20
0.0
 30
0.0
 11
16.5
 21
0.0
 31
0.0
  0
ENDBLK
  5
DD
330
DB
100
AcDbEntity
  8
0
100
AcDbBlockEnd
  0
BLOCK
  5
E8
330
E7
100
AcDbEntity
  8
0
100
AcDbBlockBegin
  2
SW_CENTERMARKSYMBOL_6
 70
     0
 10
0.0
 20
0.0
 30
0.0
  3
SW_CENTERMARKSYMBOL_6
  1

  0
LINE
  5
EA
330
E7
100
AcDbEntity
  8
FORMAT
 62
     0
100
AcDbLine
 10
0.0
 20
0.0
 30
0.0
 11
0.0
 21
2.5
 31
0.0
  0
LINE
  5
EB
330
E7
100
AcDbEntity
  8
FORMAT
 62
     0
100
AcDbLine
 10
0.0
 20
0.0
 30
0.0
 11
-2.5
 21
0.0
 31
0.0
  0
LINE
  5
EC
330
E7
100
AcDbEntity
  8
FORMAT
 62
     0
100
AcDbLine
 10
0.0
 20
0.0
 30
0.0
 11
0.0
 21
-2.5
 31
0.0
  0
LINE
  5
ED
330
E7
100
AcDbEntity
  8
FORMAT
 62
     0
100
AcDbLine
 10
0.0
 20
0.0
 30
0.0
 11
2.5
 21
0.0
 31
0.0
  0
LINE
  5
EE
330
E7
100
AcDbEntity
  8
FORMAT
 62
     0
100
AcDbLine
 10
0.0
 20
5.0
 30
0.0
 11
0.0
 21
16.5
 31
0.0
  0
LINE
  5
EF
330
E7
100
AcDbEntity
  8
FORMAT
 62
     0
100
AcDbLine
 10
-5.0
 20
0.0
 30
0.0
 11
-16.5
 21
0.0
 31
0.0
  0
LINE
  5
F0
330
E7
100
AcDbEntity
  8
FORMAT
 62
     0
100
AcDbLine
 10
0.0
 20
-5.0
 30
0.0
 11
0.0
 21
-16.5
 31
0.0
  0
LINE
  5
F1
330
E7
100
AcDbEntity
  8
FORMAT
 62
     0
100
AcDbLine
 10
5.0
 20
0.0
 30
0.0
 11
16.5
 21
0.0
 31
0.0
  0
ENDBLK
  5
E9
330
E7
100
AcDbEntity
  8
0
100
AcDbBlockEnd
  0
BLOCK
  5
F4
330
F3
100
AcDbEntity
  8
0
100
AcDbBlockBegin
  2
SW_CENTERMARKSYMBOL_7
 70
     0
 10
0.0
 20
0.0
 30
0.0
  3
SW_CENTERMARKSYMBOL_7
  1

  0
LINE
  5
F6
330
F3
100
AcDbEntity
  8
FORMAT
 62
     0
100
AcDbLine
 10
0.0
 20
0.0
 30
0.0
 11
0.0
 21
2.5
 31
0.0
  0
LINE
  5
F7
330
F3
100
AcDbEntity
  8
FORMAT
 62
     0
100
AcDbLine
 10
0.0
 20
0.0
 30
0.0
 11
-2.5
 21
0.0
 31
0.0
  0
LINE
  5
F8
330
F3
100
AcDbEntity
  8
FORMAT
 62
     0
100
AcDbLine
 10
0.0
 20
0.0
 30
0.0
 11
0.0
 21
-2.5
 31
0.0
  0
LINE
  5
F9
330
F3
100
AcDbEntity
  8
FORMAT
 62
     0
100
AcDbLine
 10
0.0
 20
0.0
 30
0.0
 11
2.5
 21
0.0
 31
0.0
  0
LINE
  5
FA
330
F3
100
AcDbEntity
  8
FORMAT
 62
     0
100
AcDbLine
 10
0.0
 20
5.0
 30
0.0
 11
0.0
 21
16.5
 31
0.0
  0
LINE
  5
FB
330
F3
100
AcDbEntity
  8
FORMAT
 62
     0
100
AcDbLine
 10
-5.0
 20
0.0
 30
0.0
 11
-16.5
 21
0.0
 31
0.0
  0
LINE
  5
FC
330
F3
100
AcDbEntity
  8
FORMAT
 62
     0
100
AcDbLine
 10
0.0
 20
-5.0
 30
0.0
 11
0.0
 21
-16.5
 31
0.0
  0
LINE
  5
FD
330
F3
100
AcDbEntity
  8
FORMAT
 62
     0
100
AcDbLine
 10
5.0
 20
0.0
 30
0.0
 11
16.5
 21
0.0
 31
0.0
  0
ENDBLK
  5
F5
330
F3
100
AcDbEntity
  8
0
100
AcDbBlockEnd
  0
BLOCK
  5
100
330
FF
100
AcDbEntity
  8
0
100
AcDbBlockBegin
  2
SW_CENTERMARKSYMBOL_8
 70
     0
 10
0.0
 20
0.0
 30
0.0
  3
SW_CENTERMARKSYMBOL_8
  1

  0
LINE
  5
102
330
FF
100
AcDbEntity
  8
FORMAT
 62
     0
100
AcDbLine
 10
0.0
 20
0.0
 30
0.0
 11
0.0
 21
2.5
 31
0.0
  0
LINE
  5
103
330
FF
100
AcDbEntity
  8
FORMAT
 62
     0
100
AcDbLine
 10
0.0
 20
0.0
 30
0.0
 11
-2.5
 21
0.0
 31
0.0
  0
LINE
  5
104
330
FF
100
AcDbEntity
  8
FORMAT
 62
     0
100
AcDbLine
 10
0.0
 20
0.0
 30
0.0
 11
0.0
 21
-2.5
 31
0.0
  0
LINE
  5
105
330
FF
100
AcDbEntity
  8
FORMAT
 62
     0
100
AcDbLine
 10
0.0
 20
0.0
 30
0.0
 11
2.5
 21
0.0
 31
0.0
  0
LINE
  5
106
330
FF
100
AcDbEntity
  8
FORMAT
 62
     0
100
AcDbLine
 10
0.0
 20
5.0
 30
0.0
 11
0.0
 21
16.5
 31
0.0
  0
LINE
  5
107
330
FF
100
AcDbEntity
  8
FORMAT
 62
     0
100
AcDbLine
 10
-5.0
 20
0.0
 30
0.0
 11
-16.5
 21
0.0
 31
0.0
  0
LINE
  5
108
330
FF
100
AcDbEntity
  8
FORMAT
 62
     0
100
AcDbLine
 10
0.0
 20
-5.0
 30
0.0
 11
0.0
 21
-16.5
 31
0.0
  0
LINE
  5
109
330
FF
100
AcDbEntity
  8
FORMAT
 62
     0
100
AcDbLine
 10
5.0
 20
0.0
 30
0.0
 11
16.5
 21
0.0
 31
0.0
  0
ENDBLK
  5
101
330
FF
100
AcDbEntity
  8
0
100
AcDbBlockEnd
  0
BLOCK
  5
10C
330
10B
100
AcDbEntity
  8
0
100
AcDbBlockBegin
  2
SW_CENTERMARKSYMBOL_9
 70
     0
 10
0.0
 20
0.0
 30
0.0
  3
SW_CENTERMARKSYMBOL_9
  1

  0
LINE
  5
10E
330
10B
100
AcDbEntity
  8
FORMAT
 62
     0
100
AcDbLine
 10
0.0
 20
0.0
 30
0.0
 11
0.0
 21
2.5
 31
0.0
  0
LINE
  5
10F
330
10B
100
AcDbEntity
  8
FORMAT
 62
     0
100
AcDbLine
 10
0.0
 20
0.0
 30
0.0
 11
-2.5
 21
0.0
 31
0.0
  0
LINE
  5
110
330
10B
100
AcDbEntity
  8
FORMAT
 62
     0
100
AcDbLine
 10
0.0
 20
0.0
 30
0.0
 11
0.0
 21
-2.5
 31
0.0
  0
LINE
  5
111
330
10B
100
AcDbEntity
  8
FORMAT
 62
     0
100
AcDbLine
 10
0.0
 20
0.0
 30
0.0
 11
2.5
 21
0.0
 31
0.0
  0
LINE
  5
112
330
10B
100
AcDbEntity
  8
FORMAT
 62
     0
100
AcDbLine
 10
0.0
 20
5.0
 30
0.0
 11
0.0
 21
16.5
 31
0.0
  0
LINE
  5
113
330
10B
100
AcDbEntity
  8
FORMAT
 62
     0
100
AcDbLine
 10
-5.0
 20
0.0
 30
0.0
 11
-16.5
 21
0.0
 31
0.0
  0
LINE
  5
114
330
10B
100
AcDbEntity
  8
FORMAT
 62
     0
100
AcDbLine
 10
0.0
 20
-5.0
 30
0.0
 11
0.0
 21
-16.5
 31
0.0
  0
LINE
  5
115
330
10B
100
AcDbEntity
  8
FORMAT
 62
     0
100
AcDbLine
 10
5.0
 20
0.0
 30
0.0
 11
16.5
 21
0.0
 31
0.0
  0
ENDBLK
  5
10D
330
10B
100
AcDbEntity
  8
0
100
AcDbBlockEnd
  0
BLOCK
  5
118
330
117
100
AcDbEntity
  8
0
100
AcDbBlockBegin
  2
SW_CENTERMARKSYMBOL_10
 70
     0
 10
0.0
 20
0.0
 30
0.0
  3
SW_CENTERMARKSYMBOL_10
  1

  0
LINE
  5
11A
330
117
100
AcDbEntity
  8
FORMAT
 62
     0
100
AcDbLine
 10
0.0
 20
0.0
 30
0.0
 11
0.0
 21
2.5
 31
0.0
  0
LINE
  5
11B
330
117
100
AcDbEntity
  8
FORMAT
 62
     0
100
AcDbLine
 10
0.0
 20
0.0
 30
0.0
 11
-2.5
 21
0.0
 31
0.0
  0
LINE
  5
11C
330
117
100
AcDbEntity
  8
FORMAT
 62
     0
100
AcDbLine
 10
0.0
 20
0.0
 30
0.0
 11
0.0
 21
-2.5
 31
0.0
  0
LINE
  5
11D
330
117
100
AcDbEntity
  8
FORMAT
 62
     0
100
AcDbLine
 10
0.0
 20
0.0
 30
0.0
 11
2.5
 21
0.0
 31
0.0
  0
LINE
  5
11E
330
117
100
AcDbEntity
  8
FORMAT
 62
     0
100
AcDbLine
 10
0.0
 20
5.0
 30
0.0
 11
0.0
 21
16.5
 31
0.0
  0
LINE
  5
11F
330
117
100
AcDbEntity
  8
FORMAT
 62
     0
100
AcDbLine
 10
-5.0
 20
0.0
 30
0.0
 11
-16.5
 21
0.0
 31
0.0
  0
LINE
  5
120
330
117
100
AcDbEntity
  8
FORMAT
 62
     0
100
AcDbLine
 10
0.0
 20
-5.0
 30
0.0
 11
0.0
 21
-16.5
 31
0.0
  0
LINE
  5
121
330
117
100
AcDbEntity
  8
FORMAT
 62
     0
100
AcDbLine
 10
5.0
 20
0.0
 30
0.0
 11
16.5
 21
0.0
 31
0.0
  0
ENDBLK
  5
119
330
117
100
AcDbEntity
  8
0
100
AcDbBlockEnd
  0
BLOCK
  5
124
330
123
100
AcDbEntity
  8
0
100
AcDbBlockBegin
  2
SW_CENTERMARKSYMBOL_11
 70
     0
 10
0.0
 20
0.0
 30
0.0
  3
SW_CENTERMARKSYMBOL_11
  1

  0
LINE
  5
126
330
123
100
AcDbEntity
  8
FORMAT
 62
     0
100
AcDbLine
 10
0.0
 20
0.0
 30
0.0
 11
0.0
 21
2.5
 31
0.0
  0
LINE
  5
127
330
123
100
AcDbEntity
  8
FORMAT
 62
     0
100
AcDbLine
 10
0.0
 20
0.0
 30
0.0
 11
-2.5
 21
0.0
 31
0.0
  0
LINE
  5
128
330
123
100
AcDbEntity
  8
FORMAT
 62
     0
100
AcDbLine
 10
0.0
 20
0.0
 30
0.0
 11
0.0
 21
-2.5
 31
0.0
  0
LINE
  5
129
330
123
100
AcDbEntity
  8
FORMAT
 62
     0
100
AcDbLine
 10
0.0
 20
0.0
 30
0.0
 11
2.5
 21
0.0
 31
0.0
  0
LINE
  5
12A
330
123
100
AcDbEntity
  8
FORMAT
 62
     0
100
AcDbLine
 10
0.0
 20
5.0
 30
0.0
 11
0.0
 21
16.5
 31
0.0
  0
LINE
  5
12B
330
123
100
AcDbEntity
  8
FORMAT
 62
     0
100
AcDbLine
 10
-5.0
 20
0.0
 30
0.0
 11
-16.5
 21
0.0
 31
0.0
  0
LINE
  5
12C
330
123
100
AcDbEntity
  8
FORMAT
 62
     0
100
AcDbLine
 10
0.0
 20
-5.0
 30
0.0
 11
0.0
 21
-16.5
 31
0.0
  0
LINE
  5
12D
330
123
100
AcDbEntity
  8
FORMAT
 62
     0
100
AcDbLine
 10
5.0
 20
0.0
 30
0.0
 11
16.5
 21
0.0
 31
0.0
  0
ENDBLK
  5
125
330
123
100
AcDbEntity
  8
0
100
AcDbBlockEnd
  0
BLOCK
  5
130
330
12F
100
AcDbEntity
  8
0
100
AcDbBlockBegin
  2
SW_CENTERMARKSYMBOL_12
 70
     0
 10
0.0
 20
0.0
 30
0.0
  3
SW_CENTERMARKSYMBOL_12
  1

  0
LINE
  5
132
330
12F
100
AcDbEntity
  8
FORMAT
 62
     0
100
AcDbLine
 10
0.0
 20
0.0
 30
0.0
 11
0.0
 21
2.5
 31
0.0
  0
LINE
  5
133
330
12F
100
AcDbEntity
  8
FORMAT
 62
     0
100
AcDbLine
 10
0.0
 20
0.0
 30
0.0
 11
-2.5
 21
0.0
 31
0.0
  0
LINE
  5
134
330
12F
100
AcDbEntity
  8
FORMAT
 62
     0
100
AcDbLine
 10
0.0
 20
0.0
 30
0.0
 11
0.0
 21
-2.5
 31
0.0
  0
LINE
  5
135
330
12F
100
AcDbEntity
  8
FORMAT
 62
     0
100
AcDbLine
 10
0.0
 20
0.0
 30
0.0
 11
2.5
 21
0.0
 31
0.0
  0
LINE
  5
136
330
12F
100
AcDbEntity
  8
FORMAT
 62
     0
100
AcDbLine
 10
0.0
 20
5.0
 30
0.0
 11
0.0
 21
16.5
 31
0.0
  0
LINE
  5
137
330
12F
100
AcDbEntity
  8
FORMAT
 62
     0
100
AcDbLine
 10
-5.0
 20
0.0
 30
0.0
 11
-16.5
 21
0.0
 31
0.0
  0
LINE
  5
138
330
12F
100
AcDbEntity
  8
FORMAT
 62
     0
100
AcDbLine
 10
0.0
 20
-5.0
 30
0.0
 11
0.0
 21
-16.5
 31
0.0
  0
LINE
  5
139
330
12F
100
AcDbEntity
  8
FORMAT
 62
     0
100
AcDbLine
 10
5.0
 20
0.0
 30
0.0
 11
16.5
 21
0.0
 31
0.0
  0
ENDBLK
  5
131
330
12F
100
AcDbEntity
  8
0
100
AcDbBlockEnd
  0
ENDSEC
  0
SECTION
  2
ENTITIES
  0
CIRCLE
  5
83
330
1F
100
AcDbEntity
  8
0
  6
Continuous
 62
     7
370
    25
100
AcDbCircle
 10
-18.6089153513
 20
204.4409958732
 30
0.0
 40
14.00000000000001
  0
CIRCLE
  5
84
330
1F
100
AcDbEntity
  8
0
  6
Continuous
 62
     7
370
    25
100
AcDbCircle
 10
-18.6089153513
 20
26.9409958732
 30
0.0
 40
14.00000000000001
  0
CIRCLE
  5
85
330
1F
100
AcDbEntity
  8
0
  6
Continuous
 62
     7
370
    25
100
AcDbCircle
 10
135.1105938204
 20
-61.8090041268
 30
0.0
 40
13.99999999999997
  0
CIRCLE
  5
86
330
1F
100
AcDbEntity
  8
0
  6
Continuous
 62
     7
370
    25
100
AcDbCircle
 10
312.6105938204
 20
115.6909958732
 30
0.0
 40
14.0
  0
CIRCLE
  5
87
330
1F
100
AcDbEntity
  8
0
  6
Continuous
 62
     7
370
    25
100
AcDbCircle
 10
223.8605938204
 20
269.410505045
 30
0.0
 40
14.00000000000003
  0
CIRCLE
  5
88
330
1F
100
AcDbEntity
  8
0
  6
Continuous
 62
     7
370
    25
100
AcDbCircle
 10
135.1105938204
 20
293.1909958732
 30
0.0
 40
14.0
  0
CIRCLE
  5
89
330
1F
100
AcDbEntity
  8
0
  6
Continuous
 62
     7
370
    25
100
AcDbCircle
 10
135.1105938204
 20
115.6909958732
 30
0.0
 40
208.5
  0
CIRCLE
  5
8A
330
1F
100
AcDbEntity
  8
0
  6
Continuous
 62
     7
370
    25
100
AcDbCircle
 10
135.1105938204
 20
115.6909958732
 30
0.0
 40
148.0
  0
CIRCLE
  5
8B
330
1F
100
AcDbEntity
  8
0
  6
Continuous
 62
     7
370
    25
100
AcDbCircle
 10
288.8301029921
 20
26.9409958732
 30
0.0
 40
14.0
  0
CIRCLE
  5
8C
330
1F
100
AcDbEntity
  8
0
  6
Continuous
 62
     7
370
    25
100
AcDbCircle
 10
288.8301029922
 20
204.4409958732
 30
0.0
 40
14.0
  0
CIRCLE
  5
8D
330
1F
100
AcDbEntity
  8
0
  6
Continuous
 62
     7
370
    25
100
AcDbCircle
 10
223.8605938204
 20
-38.0285132985
 30
0.0
 40
14.00000000000003
  0
CIRCLE
  5
8E
330
1F
100
AcDbEntity
  8
0
  6
Continuous
 62
     7
370
    25
100
AcDbCircle
 10
46.3605938204
 20
-38.0285132985
 30
0.0
 40
14.00000000000001
  0
CIRCLE
  5
8F
330
1F
100
AcDbEntity
  8
0
  6
Continuous
 62
     7
370
    25
100
AcDbCircle
 10
-42.3894061796
 20
115.6909958732
 30
0.0
 40
14.00000000000001
  0
CIRCLE
  5
90
330
1F
100
AcDbEntity
  8
0
  6
Continuous
 62
     7
370
    25
100
AcDbCircle
 10
46.3605938204
 20
269.410505045
 30
0.0
 40
14.00000000000001
  0
CIRCLE
  5
91
330
1F
100
AcDbEntity
  8
0
  6
Continuous
 62
     7
370
    25
100
AcDbCircle
 10
288.8301029922
 20
204.4409958732
 30
0.0
 40
13.0
  0
CIRCLE
  5
92
330
1F
100
AcDbEntity
  8
0
  6
Continuous
 62
     7
370
    25
100
AcDbCircle
 10
288.8301029921
 20
26.9409958732
 30
0.0
 40
13.0
  0
CIRCLE
  5
93
330
1F
100
AcDbEntity
  8
0
  6
Continuous
 62
     7
370
    25
100
AcDbCircle
 10
135.1105938204
 20
115.6909958732
 30
0.0
 40
147.0
  0
CIRCLE
  5
94
330
1F
100
AcDbEntity
  8
0
  6
Continuous
 62
     7
370
    25
100
AcDbCircle
 10
135.1105938204
 20
115.6909958732
 30
0.0
 40
209.5
  0
CIRCLE
  5
95
330
1F
100
AcDbEntity
  8
0
  6
Continuous
 62
     7
370
    25
100
AcDbCircle
 10
135.1105938204
 20
293.1909958732
 30
0.0
 40
13.0
  0
CIRCLE
  5
96
330
1F
100
AcDbEntity
  8
0
  6
Continuous
 62
     7
370
    25
100
AcDbCircle
 10
223.8605938204
 20
269.410505045
 30
0.0
 40
13.00000000000003
  0
CIRCLE
  5
97
330
1F
100
AcDbEntity
  8
0
  6
Continuous
 62
     7
370
    25
100
AcDbCircle
 10
312.6105938204
 20
115.6909958732
 30
0.0
 40
13.0
  0
CIRCLE
  5
98
330
1F
100
AcDbEntity
  8
0
  6
Continuous
 62
     7
370
    25
100
AcDbCircle
 10
46.3605938204
 20
269.410505045
 30
0.0
 40
13.00000000000001
  0
CIRCLE
  5
99
330
1F
100
AcDbEntity
  8
0
  6
Continuous
 62
     7
370
    25
100
AcDbCircle
 10
-42.3894061796
 20
115.6909958732
 30
0.0
 40
13.00000000000001
  0
CIRCLE
  5
9A
330
1F
100
AcDbEntity
  8
0
  6
Continuous
 62
     7
370
    25
100
AcDbCircle
 10
46.3605938204
 20
-38.0285132985
 30
0.0
 40
13.00000000000001
  0
CIRCLE
  5
9B
330
1F
100
AcDbEntity
  8
0
  6
Continuous
 62
     7
370
    25
100
AcDbCircle
 10
223.8605938204
 20
-38.0285132985
 30
0.0
 40
13.0
  0
CIRCLE
  5
9C
330
1F
100
AcDbEntity
  8
0
  6
Continuous
 62
     7
370
    25
100
AcDbCircle
 10
135.1105938204
 20
-61.8090041268
 30
0.0
 40
12.99999999999997
  0
CIRCLE
  5
9D
330
1F
100
AcDbEntity
  8
0
  6
Continuous
 62
     7
370
    25
100
AcDbCircle
 10
-18.6089153513
 20
26.9409958732
 30
0.0
 40
13.00000000000001
  0
CIRCLE
  5
9E
330
1F
100
AcDbEntity
  8
0
  6
Continuous
 62
     7
370
    25
100
AcDbCircle
 10
-18.6089153513
 20
204.4409958732
 30
0.0
 40
13.00000000000001
  0
INSERT
  5
AA
330
1F
100
AcDbEntity
  8
FORMAT
 62
     7
100
AcDbBlockReference
  2
SW_CENTERMARKSYMBOL_0
 10
135.1105938204
 20
115.6909958732
 30
0.0
  0
INSERT
  5
B6
330
1F
100
AcDbEntity
  8
FORMAT
 62
     7
100
AcDbBlockReference
  2
SW_CENTERMARKSYMBOL_1
 10
135.1105938204
 20
293.1909958732
 30
0.0
  0
INSERT
  5
C2
330
1F
100
AcDbEntity
  8
FORMAT
 62
     7
100
AcDbBlockReference
  2
SW_CENTERMARKSYMBOL_2
 10
223.8605938204
 20
269.410505045
 30
0.0
  0
INSERT
  5
CE
330
1F
100
AcDbEntity
  8
FORMAT
 62
     7
100
AcDbBlockReference
  2
SW_CENTERMARKSYMBOL_3
 10
288.8301029922
 20
204.4409958732
 30
0.0
  0
INSERT
  5
DA
330
1F
100
AcDbEntity
  8
FORMAT
 62
     7
100
AcDbBlockReference
  2
SW_CENTERMARKSYMBOL_4
 10
312.6105938204
 20
115.6909958732
 30
0.0
  0
INSERT
  5
E6
330
1F
100
AcDbEntity
  8
FORMAT
 62
     7
100
AcDbBlockReference
  2
SW_CENTERMARKSYMBOL_5
 10
46.3605938204
 20
-38.0285132985
 30
0.0
  0
INSERT
  5
F2
330
1F
100
AcDbEntity
  8
FORMAT
 62
     7
100
AcDbBlockReference
  2
SW_CENTERMARKSYMBOL_6
 10
135.1105938204
 20
-61.8090041268
 30
0.0
  0
INSERT
  5
FE
330
1F
100
AcDbEntity
  8
FORMAT
 62
     7
100
AcDbBlockReference
  2
SW_CENTERMARKSYMBOL_7
 10
223.8605938204
 20
-38.0285132985
 30
0.0
  0
INSERT
  5
10A
330
1F
100
AcDbEntity
  8
FORMAT
 62
     7
100
AcDbBlockReference
  2
SW_CENTERMARKSYMBOL_8
 10
46.3605938204
 20
269.410505045
 30
0.0
  0
INSERT
  5
116
330
1F
100
AcDbEntity
  8
FORMAT
 62
     7
100
AcDbBlockReference
  2
SW_CENTERMARKSYMBOL_9
 10
-18.6089153513
 20
204.4409958732
 30
0.0
  0
INSERT
  5
122
330
1F
100
AcDbEntity
  8
FORMAT
 62
     7
100
AcDbBlockReference
  2
SW_CENTERMARKSYMBOL_10
 10
-42.3894061796
 20
115.6909958732
 30
0.0
  0
INSERT
  5
12E
330
1F
100
AcDbEntity
  8
FORMAT
 62
     7
100
AcDbBlockReference
  2
SW_CENTERMARKSYMBOL_11
 10
-18.6089153513
 20
26.9409958732
 30
0.0
  0
INSERT
  5
13A
330
1F
100
AcDbEntity
  8
FORMAT
 62
     7
100
AcDbBlockReference
  2
SW_CENTERMARKSYMBOL_12
 10
288.8301029921
 20
26.9409958732
 30
0.0
  0
LINE
  5
13B
330
1F
100
AcDbEntity
  8
0
  6
Continuous
 62
     7
370
    25
100
AcDbLine
 10
-243.7986020024
 20
325.1909958732
 30
0.0
 11
-273.7986020024
 21
325.1909958732
 31
0.0
  0
LINE
  5
13C
330
1F
100
AcDbEntity
  8
0
  6
Continuous
 62
     7
370
    25
100
AcDbLine
 10
-273.7986020024
 20
-93.8090041268
 30
0.0
 11
-243.7986020024
 21
-93.8090041268
 31
0.0
  0
ARC
  5
13D
330
1F
100
AcDbEntity
  8
0
  6
Continuous
 62
     7
370
    25
100
AcDbCircle
 10
-243.7986020024
 20
-92.8090041268
 30
0.0
 40
1.000000000000014
100
AcDbArc
 50
270.0
 51
0.0
  0
ARC
  5
13E
330
1F
100
AcDbEntity
  8
0
  6
Continuous
 62
     7
370
    25
100
AcDbCircle
 10
-243.7986020024
 20
324.1909958732
 30
0.0
 40
1.0
100
AcDbArc
 50
0.0
 51
90.0
  0
ARC
  5
13F
330
1F
100
AcDbEntity
  8
0
  6
Continuous
 62
     7
370
    25
100
AcDbCircle
 10
-273.7986020024
 20
-92.8090041268
 30
0.0
 40
1.000000000000014
100
AcDbArc
 50
180.0
 51
270.0
  0
ARC
  5
140
330
1F
100
AcDbEntity
  8
0
  6
Continuous
 62
     7
370
    25
100
AcDbCircle
 10
-273.7986020024
 20
324.1909958732
 30
0.0
 40
1.0
100
AcDbArc
 50
90.0
 51
180.0
  0
LINE
  5
141
330
1F
100
AcDbEntity
  8
0
  6
Continuous
 62
     7
370
    25
100
AcDbLine
 10
-242.7986020024
 20
115.6909958732
 30
0.0
 11
-242.7986020024
 21
-92.8090041268
 31
0.0
  0
LINE
  5
142
330
1F
100
AcDbEntity
  8
0
  6
Continuous
 62
     7
370
    25
100
AcDbLine
 10
-242.7986020024
 20
324.1909958732
 30
0.0
 11
-242.7986020024
 21
115.6909958732
 31
0.0
  0
LINE
  5
143
330
1F
100
AcDbEntity
  8
0
  6
Continuous
 62
     7
370
    25
100
AcDbLine
 10
-274.7986020024
 20
115.6909958732
 30
0.0
 11
-274.7986020024
 21
324.1909958732
 31
0.0
  0
LINE
  5
144
330
1F
100
AcDbEntity
  8
0
  6
Continuous
 62
     7
370
    25
100
AcDbLine
 10
-274.7986020024
 20
-92.8090041268
 30
0.0
 11
-274.7986020024
 21
115.6909958732
 31
0.0
  0
LINE
  5
145
330
1F
100
AcDbEntity
  8
0
  6
Continuous
 62
     1
370
    25
100
AcDbLine
 10
-273.7986020024
 20
115.6909958732
 30
0.0
 11
-273.7986020024
 21
-93.8090041268
 31
0.0
  0
LINE
  5
146
330
1F
100
AcDbEntity
  8
0
  6
Continuous
 62
     1
370
    25
100
AcDbLine
 10
-273.7986020024
 20
325.1909958732
 30
0.0
 11
-273.7986020024
 21
115.6909958732
 31
0.0
  0
LINE
  5
147
330
1F
100
AcDbEntity
  8
0
  6
Continuous
 62
     1
370
    25
100
AcDbLine
 10
-243.7986020024
 20
115.6909958732
 30
0.0
 11
-243.7986020024
 21
325.1909958732
 31
0.0
  0
LINE
  5
148
330
1F
100
AcDbEntity
  8
0
  6
Continuous
 62
     1
370
    25
100
AcDbLine
 10
-243.7986020024
 20
-93.8090041268
 30
0.0
 11
-243.7986020024
 21
115.6909958732
 31
0.0
  0
LINE
  5
149
330
1F
100
AcDbEntity
  8
0
  6
Continuous
 62
     7
370
    25
100
AcDbLine
 10
553.0983369284
 20
-93.8090041268
 30
0.0
 11
583.0983369284
 21
-93.8090041268
 31
0.0
  0
LINE
  5
14A
330
1F
100
AcDbEntity
  8
0
  6
Continuous
 62
     7
370
    25
100
AcDbLine
 10
583.0983369284
 20
325.1909958732
 30
0.0
 11
553.0983369284
 21
325.1909958732
 31
0.0
  0
ARC
  5
14B
330
1F
100
AcDbEntity
  8
0
  6
Continuous
 62
     7
370
    25
100
AcDbCircle
 10
553.0983369284
 20
324.1909958732
 30
0.0
 40
1.0
100
AcDbArc
 50
90.0
 51
180.0
  0
ARC
  5
14C
330
1F
100
AcDbEntity
  8
0
  6
Continuous
 62
     7
370
    25
100
AcDbCircle
 10
553.0983369284
 20
-92.8090041268
 30
0.0
 40
1.000000000000014
100
AcDbArc
 50
180.0
 51
270.0
  0
ARC
  5
14D
330
1F
100
AcDbEntity
  8
0
  6
Continuous
 62
     7
370
    25
100
AcDbCircle
 10
583.0983369284
 20
324.1909958732
 30
0.0
 40
1.0
100
AcDbArc
 50
0.0
 51
90.0
  0
ARC
  5
14E
330
1F
100
AcDbEntity
  8
0
  6
Continuous
 62
     7
370
    25
100
AcDbCircle
 10
583.0983369284
 20
-92.8090041268
 30
0.0
 40
1.000000000000014
100
AcDbArc
 50
270.0
 51
0.0
  0
LINE
  5
14F
330
1F
100
AcDbEntity
  8
0
  6
Continuous
 62
     7
370
    25
100
AcDbLine
 10
552.0983369284
 20
-92.8090041268
 30
0.0
 11
552.0983369284
 21
324.1909958732
 31
0.0
  0
LINE
  5
150
330
1F
100
AcDbEntity
  8
0
  6
Continuous
 62
     7
370
    25
100
AcDbLine
 10
584.0983369284
 20
324.1909958732
 30
0.0
 11
584.0983369284
 21
-92.8090041268
 31
0.0
  0
LINE
  5
151
330
1F
100
AcDbEntity
  8
0
  6
Continuous
 62
     1
370
    25
100
AcDbLine
 10
583.0983369284
 20
-93.8090041268
 30
0.0
 11
583.0983369284
 21
325.1909958732
 31
0.0
  0
LINE
  5
152
330
1F
100
AcDbEntity
  8
0
  6
Continuous
 62
     1
370
    25
100
AcDbLine
 10
553.0983369284
 20
325.1909958732
 30
0.0
 11
553.0983369284
 21
-93.8090041268
 31
0.0
  0
LINE
  5
153
330
1F
100
AcDbEntity
  8
0
  6
Continuous
 62
     7
370
    25
100
AcDbLine
 10
344.6105938204
 20
462.0994243355
 30
0.0
 11
344.6105938204
 21
492.0994243355
 31
0.0
  0
LINE
  5
154
330
1F
100
AcDbEntity
  8
0
  6
Continuous
 62
     7
370
    25
100
AcDbLine
 10
-74.3894061796
 20
492.0994243355
 30
0.0
 11
-74.3894061796
 21
462.0994243355
 31
0.0
  0
ARC
  5
155
330
1F
100
AcDbEntity
  8
0
  6
Continuous
 62
     7
370
    25
100
AcDbCircle
 10
-73.3894061796
 20
462.0994243355
 30
0.0
 40
1.0
100
AcDbArc
 50
180.0
 51
270.0
  0
ARC
  5
156
330
1F
100
AcDbEntity
  8
0
  6
Continuous
 62
     7
370
    25
100
AcDbCircle
 10
343.6105938204
 20
462.0994243355
 30
0.0
 40
1.0
100
AcDbArc
 50
270.0
 51
0.0
  0
ARC
  5
157
330
1F
100
AcDbEntity
  8
0
  6
Continuous
 62
     7
370
    25
100
AcDbCircle
 10
-73.3894061796
 20
492.0994243355
 30
0.0
 40
1.0
100
AcDbArc
 50
90.0
 51
180.0
  0
ARC
  5
158
330
1F
100
AcDbEntity
  8
0
  6
Continuous
 62
     7
370
    25
100
AcDbCircle
 10
343.6105938204
 20
492.0994243355
 30
0.0
 40
1.0
100
AcDbArc
 50
0.0
 51
90.0
  0
LINE
  5
159
330
1F
100
AcDbEntity
  8
0
  6
Continuous
 62
     7
370
    25
100
AcDbLine
 10
343.6105938204
 20
461.0994243355
 30
0.0
 11
-73.3894061784
 21
461.0994243355
 31
0.0
  0
LINE
  5
15A
330
1F
100
AcDbEntity
  8
0
  6
Continuous
 62
     7
370
    25
100
AcDbLine
 10
-73.3894061784
 20
493.0994243355
 30
0.0
 11
343.6105938204
 21
493.0994243355
 31
0.0
  0
LINE
  5
15B
330
1F
100
AcDbEntity
  8
0
  6
Continuous
 62
     1
370
    25
100
AcDbLine
 10
344.6105938204
 20
492.0994243355
 30
0.0
 11
-74.3894061796
 21
492.0994243355
 31
0.0
  0
LINE
  5
15C
330
1F
100
AcDbEntity
  8
0
  6
Continuous
 62
     1
370
    25
100
AcDbLine
 10
-74.3894061796
 20
462.0994243355
 30
0.0
 11
344.6105938204
 21
462.0994243355
 31
0.0
  0
LINE
  5
15D
330
1F
100
AcDbEntity
  8
0
  6
Continuous
 62
     7
370
    25
100
AcDbLine
 10
-74.3894061796
 20
-350.2871344468
 30
0.0
 11
-74.3894061796
 21
-380.2871344468
 31
0.0
  0
LINE
  5
15E
330
1F
100
AcDbEntity
  8
0
  6
Continuous
 62
     7
370
    25
100
AcDbLine
 10
344.6105938204
 20
-380.2871344468
 30
0.0
 11
344.6105938204
 21
-350.2871344468
 31
0.0
  0
ARC
  5
15F
330
1F
100
AcDbEntity
  8
0
  6
Continuous
 62
     7
370
    25
100
AcDbCircle
 10
343.6105938204
 20
-350.2871344468
 30
0.0
 40
1.0
100
AcDbArc
 50
0.0
 51
90.0
  0
ARC
  5
160
330
1F
100
AcDbEntity
  8
0
  6
Continuous
 62
     7
370
    25
100
AcDbCircle
 10
-73.3894061796
 20
-350.2871344468
 30
0.0
 40
1.0
100
AcDbArc
 50
90.0
 51
180.0
  0
ARC
  5
161
330
1F
100
AcDbEntity
  8
0
  6
Continuous
 62
     7
370
    25
100
AcDbCircle
 10
343.6105938204
 20
-380.2871344468
 30
0.0
 40
1.0
100
AcDbArc
 50
270.0
 51
0.0
  0
ARC
  5
162
330
1F
100
AcDbEntity
  8
0
  6
Continuous
 62
     7
370
    25
100
AcDbCircle
 10
-73.3894061796
 20
-380.2871344468
 30
0.0
 40
1.0
100
AcDbArc
 50
180.0
 51
270.0
  0
LINE
  5
163
330
1F
100
AcDbEntity
  8
0
  6
Continuous
 62
     7
370
    25
100
AcDbLine
 10
-73.3894061784
 20
-349.2871344468
 30
0.0
 11
343.6105938204
 21
-349.2871344468
 31
0.0
  0
LINE
  5
164
330
1F
100
AcDbEntity
  8
0
  6
Continuous
 62
     7
370
    25
100
AcDbLine
 10
343.6105938204
 20
-381.2871344468
 30
0.0
 11
-73.3894061784
 21
-381.2871344468
 31
0.0
  0
LINE
  5
165
330
1F
100
AcDbEntity
  8
0
  6
Continuous
 62
     1
370
    25
100
AcDbLine
 10
-74.3894061796
 20
-380.2871344468
 30
0.0
 11
344.6105938204
 21
-380.2871344468
 31
0.0
  0
LINE
  5
166
330
1F
100
AcDbEntity
  8
0
  6
Continuous
 62
     1
370
    25
100
AcDbLine
 10
344.6105938204
 20
-350.2871344468
 30
0.0
 11
-74.3894061796
 21
-350.2871344468
 31
0.0
  0
SPLINE
  5
167
330
1F
100
AcDbEntity
  8
0
  6
Continuous
 62
     7
370
    25
100
AcDbSpline
210
0.0
220
0.0
230
1.0
 70
     8
 71
     3
 72
    75
 73
    71
 74
     0
 42
0.00000001
 43
0.00000001
 40
0.0
 40
0.0
 40
0.0
 40
0.0
 40
0.0077344422280287
 40
0.0225403813229894
 40
0.0373538619128896
 40
0.0521743993670251
 40
0.0670012908834216
 40
0.0818337061180179
 40
0.0966707651111172
 40
0.111511599044174
 40
0.1263553930687706
 40
0.1412014129185649
 40
0.1560490182920129
 40
0.1708976663527599
 40
0.1857469084682177
 40
0.2005963741747511
 40
0.2154457077437364
 40
0.2302947114679112
 40
0.2451432409390967
 40
0.259991195871476
 40
0.2748385119920015
 40
0.2896851540521911
 40
0.3045311099275217
 40
0.3193763857165471
 40
0.3342210017263765
 40
0.3490649892239682
 40
0.3639083878364066
 40
0.3787512434929102
 40
0.3935936068135937
 40
0.4084355318628115
 40
0.4232770751973511
 40
0.4381182951507471
 40
0.4529592513048586
 40
0.4678000041079264
 40
0.4826406146051228
 40
0.4974811442529619
 40
0.5123216547930264
 40
0.5271622008369498
 40
0.5420028311312403
 40
0.5568436078254404
 40
0.5716845930677242
 40
0.5865258488881085
 40
0.6013674370293919
 40
0.6162094187001492
 40
0.6310518542218956
 40
0.6458948025373885
 40
0.6607383205404179
 40
0.6755824621795172
 40
0.6904272772782871
 40
0.7052728100040325
 40
0.7201190969037433
 40
0.7349661644132226
 40
0.7498140257317697
 40
0.7646626769435145
 40
0.7795120922596828
 40
0.7943622182585193
 40
0.8092129670178816
 40
0.8240642080791273
 40
0.8389157592630492
 40
0.8537673143802273
 40
0.8686184963975464
 40
0.8834688756062788
 40
0.8983179267523648
 40
0.9131650236630096
 40
0.9280094398143458
 40
0.9428503578930956
 40
0.9576868917842372
 40
0.9725181242941304
 40
0.987343162958661
 40
1.0
 40
1.0
 40
1.0
 40
1.0
 10
626.8606346571497
 20
-145.8639121284318
 30
0.0
 10
625.9912836358013
 20
-145.7795768049818
 30
0.0
 10
623.4577456059083
 20
-145.5337995021697
 30
0.0
 10
619.1425236255625
 20
-145.4416656905442
 30
0.0
 10
613.9317260095881
 20
-145.5668190960066
 30
0.0
 10
608.6231801121683
 20
-145.9956798520965
 30
0.0
 10
603.2320086289294
 20
-146.7091807503108
 30
0.0
 10
597.7646042594617
 20
-147.7112644958865
 30
0.0
 10
592.229868149539
 20
-148.9990997191875
 30
0.0
 10
586.6361612848481
 20
-150.5710735663357
 30
0.0
 10
580.9920906651262
 20
-152.4246605181186
 30
0.0
 10
575.3062720343066
 20
-154.5570082002567
 30
0.0
 10
569.5873713461299
 20
-156.9647959873004
 30
0.0
 10
563.84407514415
 20
-159.644288550122
 30
0.0
 10
558.0850838217549
 20
-162.5913359432285
 30
0.0
 10
552.3191078425416
 20
-165.8013827532732
 30
0.0
 10
546.5548461764976
 20
-169.2694824074971
 30
0.0
 10
540.8009755936456
 20
-172.9903083659637
 30
0.0
 10
535.0661332789725
 20
-176.9581700607767
 30
0.0
 10
529.3589190975437
 20
-181.1670150093476
 30
0.0
 10
523.687885281563
 20
-185.6104378002015
 30
0.0
 10
518.0615257774836
 20
-190.281689296446
 30
0.0
 10
512.4882652876365
 20
-195.1736861580732
 30
0.0
 10
506.9764480554729
 20
-200.279020763853
 30
0.0
 10
501.5343264551296
 20
-205.5899715851449
 30
0.0
 10
496.1700494491232
 20
-211.0985140434119
 30
0.0
 10
490.8916509772023
 20
-216.7963318663278
 30
0.0
 10
485.7070383360385
 20
-222.6748289446125
 30
0.0
 10
480.6239806048804
 20
-228.7251416821247
 30
0.0
 10
475.6500971673134
 20
-234.9381518247322
 30
0.0
 10
470.7928463743508
 20
-241.304499748387
 30
0.0
 10
466.0595143894861
 20
-247.8145981832532
 30
0.0
 10
461.4572042522265
 20
-254.458646348182
 30
0.0
 10
456.9928251929953
 20
-261.2266444680417
 30
0.0
 10
452.6730822291651
 20
-268.10840864516
 30
0.0
 10
448.5044660693379
 20
-275.0935860550829
 30
0.0
 10
444.4932440106019
 20
-282.1716692716734
 30
0.0
 10
440.6454509018259
 20
-289.3320109808992
 30
0.0
 10
436.966878719547
 20
-296.563842038381
 30
0.0
 10
433.463067366608
 20
-303.8562889372313
 30
0.0
 10
430.1392961849975
 20
-311.1983912494115
 30
0.0
 10
427.0005773224622
 20
-318.5791159681003
 30
0.0
 10
424.0516483947327
 20
-325.9873740891614
 30
0.0
 10
421.2969656083931
 20
-333.41203725308
 30
0.0
 10
418.7406973571238
 20
-340.8419544078673
 30
0.0
 10
416.3867183016019
 20
-348.2659684518284
 30
0.0
 10
414.2386039406981
 20
-355.6729328125176
 30
0.0
 10
412.2996256781624
 20
-363.0517279153827
 30
0.0
 10
410.5727463845277
 20
-370.3912774925141
 30
0.0
 10
409.0606164481945
 20
-377.6805646786343
 30
0.0
 10
407.7655703021398
 20
-384.908647838334
 30
0.0
 10
406.6896234031083
 20
-392.0646760658159
 30
0.0
 10
405.8344696278405
 20
-399.1379042969104
 30
0.0
 10
405.2014790358896
 20
-406.117707973254
 30
0.0
 10
404.7916959291722
 20
-412.9935972033297
 30
0.0
 10
404.6058371194814
 20
-419.7552303703404
 30
0.0
 10
404.6442902791906
 20
-426.3924271677049
 30
0.0
 10
404.9071122661743
 20
-432.8951810183301
 30
0.0
 10
405.3940264543684
 20
-439.2536622067733
 30
0.0
 10
406.1044190196437
 20
-445.4582304162354
 30
0.0
 10
407.0373339698192
 20
-451.4994527993362
 30
0.0
 10
408.1914747375561
 20
-457.3681187252493
 30
0.0
 10
409.5651855403107
 20
-463.0552688892263
 30
0.0
 10
411.1565012647982
 20
-468.5521360434566
 30
0.0
 10
412.962934198532
 20
-473.8504140973049
 30
0.0
 10
414.9822438206453
 20
-478.9413290651461
 30
0.0
 10
417.2095417464986
 20
-483.819192252928
 30
0.0
 10
419.6480758019238
 20
-488.4682474445039
 30
0.0
 10
422.1416420033142
 20
-492.6959118050191
 30
0.0
 10
423.9175017900637
 20
-495.2559180316009
 30
0.0
 10
424.735377839345
 20
-496.4349344124856
 30
0.0
  0
LINE
  5
168
330
1F
100
AcDbEntity
  8
0
  6
Continuous
 62
     7
370
    25
100
AcDbLine
 10
679.0175683974
 20
-167.6272700321
 30
0.0
 11
657.8043649618
 21
-155.3811483547
 31
0.0
  0
LINE
  5
169
330
1F
100
AcDbEntity
  8
0
  6
Continuous
 62
     7
370
    25
100
AcDbLine
 10
448.3213904746
 20
-518.2556216922
 30
0.0
 11
469.5345939102
 21
-530.5017433696
 31
0.0
  0
SPLINE
  5
16A
330
1F
100
AcDbEntity
  8
0
  6
Continuous
 62
     7
370
    25
100
AcDbSpline
210
0.0
220
0.0
230
1.0
 70
     8
 71
     3
 72
    62
 73
    58
 74
     0
 42
0.00000001
 43
0.00000001
 40
0.0
 40
0.0
 40
0.0
 40
0.0
 40
0.0105350432049676
 40
0.0290957195132684
 40
0.0476657825065321
 40
0.0662445776392947
 40
0.0848311939885043
 40
0.1034245761081181
 40
0.1220236188092626
 40
0.1406272400266547
 40
0.1592344313695532
 40
0.1778442888204637
 40
0.1964560274536365
 40
0.215068984363423
 40
0.233682613634777
 40
0.252296449489097
 40
0.2709100791388349
 40
0.2895232652082245
 40
0.3081358353884681
 40
0.3267476711175755
 40
0.3453586976175756
 40
0.3639688753373038
 40
0.3825781927456993
 40
0.4011866603589526
 40
0.4197943058569473
 40
0.4384011701378597
 40
0.4570073041659332
 40
0.4756127664800114
 40
0.4942176212461719
 40
0.512821936753726
 40
0.5314257842693125
 40
0.5500292371773992
 40
0.5686323703474727
 40
0.5872352596781938
 40
0.605837981776997
 40
0.6244406137400278
 40
0.6430432330023362
 40
0.6616459042925016
 40
0.6802486924889384
 40
0.6988516755032738
 40
0.7174549312271484
 40
0.7360585373782186
 40
0.7546625712760043
 40
0.7732671095153483
 40
0.7918722275016091
 40
0.8104779988051585
 40
0.8290844942841171
 40
0.8476917809140707
 40
0.8662999202510803
 40
0.88490896644008
 40
0.9035189636649109
 40
0.9221299429193578
 40
0.9407419179620906
 40
0.9593548803047415
 40
0.9779687930750737
 40
0.9956038798445849
 40
1.0
 40
1.0
 40
1.0
 40
1.0
 10
500.9781147383848
 20
-540.0628302629503
 30
0.0
 10
501.9256356104723
 20
-540.1469697655837
 30
0.0
 10
504.5425020998499
 20
-540.3793465409776
 30
0.0
 10
508.9467382461955
 20
-540.440025722759
 30
0.0
 10
514.1717785449738
 20
-540.2720373016092
 30
0.0
 10
519.4929358217516
 20
-539.8015024860998
 30
0.0
 10
524.895652197933
 20
-539.0461483584577
 30
0.0
 10
530.3733568735017
 20
-538.0024794542982
 30
0.0
 10
535.9171751502316
 20
-536.6732944885896
 30
0.0
 10
541.5187224437237
 20
-535.0603009024801
 30
0.0
 10
547.169385709844
 20
-533.1660827143207
 30
0.0
 10
552.8605419228512
 20
-530.9935582432573
 30
0.0
 10
558.5835210680511
 20
-528.5461097736367
 30
0.0
 10
564.3296341148175
 20
-525.8275332152557
 30
0.0
 10
570.0901782077094
 20
-522.8420381531243
 30
0.0
 10
575.8564439621229
 20
-519.5942373895789
 30
0.0
 10
581.6197348862787
 20
-516.0891333559706
 30
0.0
 10
587.3713797143977
 20
-512.3321058203296
 30
0.0
 10
593.1027460490573
 20
-508.3288984106466
 30
0.0
 10
598.8052402879232
 20
-504.0856153736341
 30
0.0
 10
604.4703179865894
 20
-499.6087125657795
 30
0.0
 10
610.089494558272
 20
-494.9049882095129
 30
0.0
 10
615.6543562728166
 20
-489.9815733171858
 30
0.0
 10
621.15657150374
 20
-484.8459217063264
 30
0.0
 10
626.5879021617715
 20
-479.5057995571763
 30
0.0
 10
631.940215250998
 20
-473.969274483421
 30
0.0
 10
637.2054944849403
 20
-468.2447041033117
 30
0.0
 10
642.3758519034993
 20
-462.3407241106121
 30
0.0
 10
647.443539436348
 20
-456.2662358540072
 30
0.0
 10
652.4009603633584
 20
-450.0303934403005
 30
0.0
 10
657.24068062753
 20
-443.6425903815682
 30
0.0
 10
661.9554399604109
 20
-437.1124458098555
 30
0.0
 10
666.5381627840605
 20
-430.4497902854167
 30
0.0
 10
670.981968857132
 20
-423.6646512262053
 30
0.0
 10
675.2801836357519
 20
-416.7672379874988
 30
0.0
 10
679.4263483223924
 20
-409.7679266216366
 30
0.0
 10
683.4142286539407
 20
-402.6772459919052
 30
0.0
 10
687.2378244643172
 20
-395.5058620882749
 30
0.0
 10
690.8913797432333
 20
-388.2645603835472
 30
0.0
 10
694.3693919880138
 20
-380.9642278444889
 30
0.0
 10
697.6666201489065
 20
-373.6158364538751
 30
0.0
 10
700.7780914631014
 20
-366.2304283727649
 30
0.0
 10
703.6991087260564
 20
-358.8190993481606
 30
0.0
 10
706.4252571024942
 20
-351.3929820644831
 30
0.0
 10
708.9524104537803
 20
-343.9632294850404
 30
0.0
 10
711.2767372125079
 20
-336.5409982005771
 30
0.0
 10
713.3947056449192
 20
-329.1374319199969
 30
0.0
 10
715.3030890655491
 20
-321.76364481041
 30
0.0
 10
716.9989688851539
 20
-314.4307060047246
 30
0.0
 10
718.4797434112432
 20
-307.1496205969589
 30
0.0
 10
719.7431128847904
 20
-299.9313248473226
 30
0.0
 10
720.7871509982125
 20
-292.786629722189
 30
0.0
 10
721.6100515521118
 20
-285.7263589172129
 30
0.0
 10
722.2110857160168
 20
-278.760762938179
 30
0.0
 10
722.580443432265
 20
-272.0219760536343
 30
0.0
 10
722.6999552905778
 20
-267.1089506949702
 30
0.0
 10
722.7065325924609
 20
-264.4787857278239
 30
0.0
 10
722.7078450311973
 20
-263.9539610432963
 30
0.0
  0
SPLINE
  5
16B
330
1F
100
AcDbEntity
  8
0
  6
Continuous
 62
     7
370
    25
100
AcDbSpline
210
0.0
220
0.0
230
1.0
 70
     8
 71
     3
 72
    22
 73
    18
 74
     0
 42
0.00000001
 43
0.00000001
 40
0.0
 40
0.0
 40
0.0
 40
0.0
 40
0.0385768784560587
 40
0.1118575748155191
 40
0.185143858078563
 40
0.2584304334933533
 40
0.3317154387331207
 40
0.4049968184068314
 40
0.4782720511684749
 40
0.5515381200274658
 40
0.6247915100275112
 40
0.6980282479645452
 40
0.7712440009271458
 40
0.8444342502924891
 40
0.9175945537817667
 40
0.9907208986161334
 40
0.9999999999999999
 40
0.9999999999999999
 40
0.9999999999999999
 40
0.9999999999999999
 10
722.7078450311973
 20
-263.9539610432963
 30
0.0
 10
722.7015912243886
 20
-262.7892945141107
 30
0.0
 10
722.6834576767567
 20
-259.4122256936801
 30
0.0
 10
722.4819819392222
 20
-253.9233386369097
 30
0.0
 10
722.0299576417033
 20
-247.5421047467911
 30
0.0
 10
721.3512925909952
 20
-241.3149740973409
 30
0.0
 10
720.4507599583891
 20
-235.2493823063331
 30
0.0
 10
719.3285769605224
 20
-229.3551424919744
 30
0.0
 10
717.9866073758599
 20
-223.6411172538329
 30
0.0
 10
716.4267589221829
 20
-218.1160670717299
 30
0.0
 10
714.6512314336596
 20
-212.7886413015783
 30
0.0
 10
712.6631597930519
 20
-207.6664818332076
 30
0.0
 10
710.463825924703
 20
-202.7597112366795
 30
0.0
 10
708.0631866808437
 20
-198.0677597782965
 30
0.0
 10
705.4405781786088
 20
-193.6284029813363
 30
0.0
 10
703.490962047249
 20
-190.5836392865993
 30
0.0
 10
702.3600511400041
 20
-189.0924472045464
 30
0.0
 10
702.2327071664437
 20
-188.9245344858222
 30
0.0
  0
SPLINE
  5
16C
330
1F
100
AcDbEntity
  8
0
  6
Continuous
 62
     7
370
    25
100
AcDbSpline
210
0.0
220
0.0
230
1.0
 70
     8
 71
     3
 72
    20
 73
    16
 74
     0
 42
0.00000001
 43
0.00000001
 40
0.0
 40
0.0
 40
0.0
 40
0.0
 40
0.0770420332764064
 40
0.1601996951805066
 40
0.2432835447727578
 40
0.326300500222973
 40
0.4092599699960258
 40
0.4921723534818567
 40
0.5750479258235832
 40
0.6578961187516132
 40
0.7407251360921557
 40
0.8235418163780799
 40
0.9063516576731165
 40
0.9847938538472256
 40
1.0
 40
1.0
 40
1.0
 40
1.0
 10
641.0056826347619
 20
-222.1528556068951
 30
0.0
 10
641.7757492063697
 20
-223.1637627453901
 30
0.0
 10
643.3770105541546
 20
-225.2658232512656
 30
0.0
 10
645.5726929294264
 20
-228.759693208283
 30
0.0
 10
647.6419760817877
 20
-232.5523302895146
 30
0.0
 10
649.5044681765874
 20
-236.5736341933805
 30
0.0
 10
651.1618335664361
 20
-240.8078943533365
 30
0.0
 10
652.6092243898329
 20
-245.2481545718765
 30
0.0
 10
653.8440035900287
 20
-249.8846119342017
 30
0.0
 10
654.8634685892647
 20
-254.7076772676245
 30
0.0
 10
655.6652858852232
 20
-259.7072544059226
 30
0.0
 10
656.2481160141772
 20
-264.8725503822316
 30
0.0
 10
656.6024520028766
 20
-270.1001030377335
 30
0.0
 10
656.7089977088473
 20
-273.977056203341
 30
0.0
 10
656.7138873745289
 20
-276.0651333056422
 30
0.0
 10
656.7146813338146
 20
-276.4041847485927
 30
0.0
  0
SPLINE
  5
16D
330
1F
100
AcDbEntity
  8
0
  6
Continuous
 62
     7
370
    25
100
AcDbSpline
210
0.0
220
0.0
230
1.0
 70
     8
 71
     3
 72
    53
 73
    49
 74
     0
 42
0.00000001
 43
0.00000001
 40
0.0
 40
0.0
 40
0.0
 40
0.0
 40
0.0116370029177393
 40
0.033767207652727
 40
0.055900084606917
 40
0.0780342921368475
 40
0.100170063402409
 40
0.1223075212427173
 40
0.144446703861335
 40
0.1665875856777381
 40
0.1887300937360326
 40
0.2108741204123823
 40
0.2330195331104319
 40
0.2551661815491212
 40
0.277313903153549
 40
0.2994625269702612
 40
0.3216118764490123
 40
0.3437617713665665
 40
0.3659120291142108
 40
0.3880624655287513
 40
0.4102128930721685
 40
0.4323630663639431
 40
0.4545127991973105
 40
0.4766619054182291
 40
0.4988101994696911
 40
0.5209574972740527
 40
0.5431036175966409
 40
0.5652483840778936
 40
0.5873916281656932
 40
0.6095331932364524
 40
0.6316729402634211
 40
0.6538107554736948
 40
0.6759465605287771
 40
0.698080325860698
 40
0.7202120878828016
 40
0.742341970846059
 40
0.7644702140842431
 40
0.7865972052148873
 40
0.8087235194307354
 40
0.8308497646498132
 40
0.8529768361741008
 40
0.8751060367870481
 40
0.8972390233089164
 40
0.919377831852523
 40
0.9415248710101972
 40
0.9636828624478035
 40
0.9858547052256347
 40
1.0
 40
1.0
 40
1.0
 40
1.0
 10
656.7146813338146
 20
-276.4041847485926
 30
0.0
 10
656.7085043882643
 20
-277.3799913602855
 30
0.0
 10
656.6905806836356
 20
-280.2114991564818
 30
0.0
 10
656.4912876256698
 20
-284.9949070027615
 30
0.0
 10
656.0440247423991
 20
-290.7814767870938
 30
0.0
 10
655.3727577604928
 20
-296.6695405026499
 30
0.0
 10
654.4826286317516
 20
-302.6439688713878
 30
0.0
 10
653.3744100962009
 20
-308.6925100330051
 30
0.0
 10
652.0506539896485
 20
-314.8019543466703
 30
0.0
 10
650.5140414194332
 20
-320.9591625151092
 30
0.0
 10
648.7678175281453
 20
-327.1508301213825
 30
0.0
 10
646.8156658892271
 20
-333.3635902956921
 30
0.0
 10
644.6617315487904
 20
-339.5840252813411
 30
0.0
 10
642.3106028800797
 20
-345.7987019453989
 30
0.0
 10
639.7673032488942
 20
-351.9942004273457
 30
0.0
 10
637.0372789195308
 20
-358.1571441993642
 30
0.0
 10
634.1263869114085
 20
-364.2742293307233
 30
0.0
 10
631.0408818700781
 20
-370.3322535476807
 30
0.0
 10
627.7874022505443
 20
-376.3181449212425
 30
0.0
 10
624.3729558939289
 20
-382.2189900014932
 30
0.0
 10
620.8049078992874
 20
-388.0220568139889
 30
0.0
 10
617.0909621254233
 20
-393.7148280766529
 30
0.0
 10
613.2391444050998
 20
-399.285028712441
 30
0.0
 10
609.2577816891414
 20
-404.7206571406542
 30
0.0
 10
605.1554874693743
 20
-410.0100063105675
 30
0.0
 10
600.941143413463
 20
-415.1416894291123
 30
0.0
 10
596.6238804087022
 20
-420.1046651658942
 30
0.0
 10
592.2130590140355
 20
-424.8882623075034
 30
0.0
 10
587.7182493078695
 20
-429.482203834629
 30
0.0
 10
583.1492101058747
 20
-433.8766303926332
 30
0.0
 10
578.5158675058059
 20
-438.0621231205592
 30
0.0
 10
573.8282926958574
 20
-442.029725791854
 30
0.0
 10
569.0966789382969
 20
-445.7709662027573
 30
0.0
 10
564.3313176165984
 20
-449.2778767071991
 30
0.0
 10
559.5425731987964
 20
-452.5430137759525
 30
0.0
 10
554.7408569869265
 20
-455.5594762983611
 30
0.0
 10
549.9365993792431
 20
-458.3209226001584
 30
0.0
 10
545.1402209100147
 20
-460.8215847354921
 30
0.0
 10
540.3621148463553
 20
-463.0562765773781
 30
0.0
 10
535.6126173637606
 20
-465.0203988699315
 30
0.0
 10
530.9019541748298
 20
-466.7099839044795
 30
0.0
 10
526.2402411013476
 20
-468.1215779088752
 30
0.0
 10
521.6372694225219
 20
-469.2526927427966
 30
0.0
 10
517.1031595028974
 20
-470.1000754485984
 30
0.0
 10
512.6457970602556
 20
-470.6660951834166
 30
0.0
 10
508.2802851045057
 20
-470.9347956986925
 30
0.0
 10
504.5119033445122
 20
-470.958021832978
 30
0.0
 10
502.2487115493481
 20
-470.7714224778279
 30
0.0
 10
501.367212696981
 20
-470.6987432123017
 30
0.0
  0
SPLINE
  5
16E
330
1F
100
AcDbEntity
  8
0
  6
Continuous
 62
     7
370
    25
100
AcDbSpline
210
0.0
220
0.0
230
1.0
 70
     8
 71
     3
 72
    13
 73
     9
 74
     0
 42
0.00000001
 43
0.00000001
 40
0.0
 40
0.0
 40
0.0
 40
0.0
 40
0.0884811926552228
 40
0.3131877944236593
 40
0.5300342937928259
 40
0.7392297751211984
 40
0.9449828409041224
 40
1.0
 40
1.0
 40
1.0
 40
1.0
 10
668.448373064001
 20
-335.4395291355056
 30
0.0
 10
668.5701819038317
 20
-335.5104215183107
 30
0.0
 10
669.0013361496441
 20
-335.7613520081231
 30
0.0
 10
669.5762277722754
 20
-336.4685902927499
 30
0.0
 10
670.1549907131961
 20
-337.5563860483451
 30
0.0
 10
670.5217709391156
 20
-338.8766751929366
 30
0.0
 10
670.6494417720919
 20
-340.006900709766
 30
0.0
 10
670.6569053328574
 20
-340.6804856066843
 30
0.0
 10
670.6584799908163
 20
-340.8225981789902
 30
0.0
  0
SPLINE
  5
16F
330
1F
100
AcDbEntity
  8
0
  6
Continuous
 62
     7
370
    25
100
AcDbSpline
210
0.0
220
0.0
230
1.0
 70
     8
 71
     3
 72
    23
 73
    19
 74
     0
 42
0.00000001
 43
0.00000001
 40
0.0
 40
0.0
 40
0.0
 40
0.0
 40
0.0335894183173933
 40
0.0980090686472639
 40
0.1626136377275733
 40
0.227377298980583
 40
0.2922707044179139
 40
0.357239738751905
 40
0.42222206552424
 40
0.4871348730787286
 40
0.5519085973445502
 40
0.6164811775628294
 40
0.6808078259984836
 40
0.744896457429144
 40
0.8088825689857817
 40
0.873022383188417
 40
0.9380494480027535
 40
1.0
 40
1.0
 40
1.0
 40
1.0
 10
670.6584799908163
 20
-340.8225981789902
 30
0.0
 10
670.6527531800222
 20
-341.1043289917707
 30
0.0
 10
670.6360431737057
 20
-341.9263787905775
 30
0.0
 10
670.4474382017361
 20
-343.3874885581591
 30
0.0
 10
670.0228153188984
 20
-345.1975734987542
 30
0.0
 10
669.3919074857932
 20
-347.0453615582607
 30
0.0
 10
668.5719667328677
 20
-348.8814374383255
 30
0.0
 10
667.5813148953679
 20
-350.6602524740295
 30
0.0
 10
666.4448042464957
 20
-352.3366240111273
 30
0.0
 10
665.1915996492469
 20
-353.8684450821065
 30
0.0
 10
663.8548690739215
 20
-355.2177269384177
 30
0.0
 10
662.4707982933454
 20
-356.3520166393644
 30
0.0
 10
661.0776184985322
 20
-357.2458511649254
 30
0.0
 10
659.7146233391082
 20
-357.8814854765508
 30
0.0
 10
658.4189764350969
 20
-358.2528449349234
 30
0.0
 10
657.227066598851
 20
-358.3558910504984
 30
0.0
 10
656.1721905492734
 20
-358.229192847635
 30
0.0
 10
655.5918511439801
 20
-357.9490302426067
 30
0.0
 10
655.3087118993917
 20
-357.8123429392354
 30
0.0
  0
SPLINE
  5
170
330
1F
100
AcDbEntity
  8
0
  6
Continuous
 62
     7
370
    25
100
AcDbSpline
210
0.0
220
0.0
230
1.0
 70
     8
 71
     3
 72
    13
 73
     9
 74
     0
 42
0.00000001
 43
0.00000001
 40
0.0
 40
0.0
 40
0.0
 40
0.0
 40
0.0884811926551858
 40
0.3131877944236329
 40
0.5300342937927901
 40
0.739229775121163
 40
0.9449828409040641
 40
1.0
 40
1.0
 40
1.0
 40
1.0
 10
622.5079925582984
 20
-415.0106020568914
 30
0.0
 10
622.629801398129
 20
-415.0814944396964
 30
0.0
 10
623.0609556439414
 20
-415.3324249295089
 30
0.0
 10
623.6358472665728
 20
-416.0396632141355
 30
0.0
 10
624.2146102074935
 20
-417.1274589697308
 30
0.0
 10
624.5813904334129
 20
-418.4477481143222
 30
0.0
 10
624.7090612663893
 20
-419.5779736311517
 30
0.0
 10
624.7165248271549
 20
-420.25155852807
 30
0.0
 10
624.7180994851138
 20
-420.3936711003761
 30
0.0
  0
SPLINE
  5
171
330
1F
100
AcDbEntity
  8
0
  6
Continuous
 62
     7
370
    25
100
AcDbSpline
210
0.0
220
0.0
230
1.0
 70
     8
 71
     3
 72
    23
 73
    19
 74
     0
 42
0.00000001
 43
0.00000001
 40
0.0
 40
0.0
 40
0.0
 40
0.0
 40
0.0335894183173932
 40
0.0980090686472632
 40
0.1626136377275717
 40
0.2273772989805848
 40
0.2922707044179089
 40
0.3572397387519071
 40
0.4222220655242487
 40
0.4871348730787419
 40
0.5519085973445592
 40
0.6164811775628396
 40
0.6808078259984965
 40
0.7448964574291581
 40
0.8088825689857901
 40
0.8730223831884231
 40
0.9380494480027617
 40
1.0
 40
1.0
 40
1.0
 40
1.0
 10
624.7180994851138
 20
-420.3936711003761
 30
0.0
 10
624.7123726743197
 20
-420.6754019131566
 30
0.0
 10
624.6956626680033
 20
-421.4974517119633
 30
0.0
 10
624.5070576960335
 20
-422.958561479545
 30
0.0
 10
624.082434813196
 20
-424.7686464201401
 30
0.0
 10
623.4515269800908
 20
-426.6164344796465
 30
0.0
 10
622.6315862271653
 20
-428.4525103597114
 30
0.0
 10
621.6409343896653
 20
-430.2313253954154
 30
0.0
 10
620.504423740793
 20
-431.9076969325134
 30
0.0
 10
619.2512191435442
 20
-433.4395180034927
 30
0.0
 10
617.9144885682188
 20
-434.7887998598039
 30
0.0
 10
616.5304177876426
 20
-435.9230895607505
 30
0.0
 10
615.1372379928293
 20
-436.8169240863115
 30
0.0
 10
613.7742428334055
 20
-437.4525583979367
 30
0.0
 10
612.4785959293941
 20
-437.8239178563093
 30
0.0
 10
611.2866860931483
 20
-437.9269639718843
 30
0.0
 10
610.2318100435707
 20
-437.8002657690209
 30
0.0
 10
609.6514706382775
 20
-437.5201031639925
 30
0.0
 10
609.3683313936892
 20
-437.3834158606212
 30
0.0
  0
SPLINE
  5
172
330
1F
100
AcDbEntity
  8
0
  6
Continuous
 62
     7
370
    25
100
AcDbSpline
210
0.0
220
0.0
230
1.0
 70
     8
 71
     3
 72
    67
 73
    63
 74
     0
 42
0.00000001
 43
0.00000001
 40
0.0
 40
0.0
 40
0.0
 40
0.0
 40
0.0001833827489286
 40
0.0174949150786253
 40
0.0347905581593427
 40
0.0520706829172479
 40
0.0693366032855474
 40
0.086590210997804
 40
0.1038336521201102
 40
0.1210690806542415
 40
0.1382984954728839
 40
0.1555236496541234
 40
0.1727460144090098
 40
0.1899667795799515
 40
0.2071868757238383
 40
0.2244068860577259
 40
0.2416272920976075
 40
0.2588485000165698
 40
0.2760707812953737
 40
0.2932943011950729
 40
0.3105191426653004
 40
0.3277453258594867
 40
0.3449728237240247
 40
0.3622015742305715
 40
0.3794314898245012
 40
0.3966624646155835
 40
0.4138943797687763
 40
0.431127107480108
 40
0.4483605138542589
 40
0.4655944609404103
 40
0.482828808132842
 40
0.5000634131025595
 40
0.5172981323950638
 40
0.5345328117192765
 40
0.5517672683503884
 40
0.5690013573897094
 40
0.5862349340387117
 40
0.6034678540601173
 40
0.6206999745195766
 40
0.637931154924773
 40
0.6551612589129272
 40
0.6723901566738476
 40
0.689617728341637
 40
0.7068438686444032
 40
0.724068493167442
 40
0.7412915466590215
 40
0.7585130138831426
 40
0.7757329335883982
 40
0.7929514161946171
 40
0.8101686657622477
 40
0.8273850066447994
 40
0.8446009148433611
 40
0.8618168514726595
 40
0.8790335868055902
 40
0.8962521797271215
 40
0.9134739691612572
 40
0.9307005904117788
 40
0.9479339640673049
 40
0.9651762409251106
 40
0.9824296843967443
 40
0.9996964743676696
 40
1.0
 40
1.0
 40
1.0
 40
1.0
 10
486.9854027032843
 20
-464.5561610339748
 30
0.0
 10
486.9759533535853
 20
-464.5454505312371
 30
0.0
 10
486.0744750438811
 20
-463.5236568404973
 30
0.0
 10
484.4501184227948
 20
-461.2621192377079
 30
0.0
 10
482.1346574196966
 20
-457.7607933219744
 30
0.0
 10
480.0391197690557
 20
-453.9962978828812
 30
0.0
 10
478.1394100054893
 20
-450.0156212919103
 30
0.0
 10
476.4469556676961
 20
-445.8167806742224
 30
0.0
 10
474.9631856797685
 20
-441.4113811803118
 30
0.0
 10
473.6917259737675
 20
-436.8078970119006
 30
0.0
 10
472.6351308929462
 20
-432.0161645810102
 30
0.0
 10
471.7957418669187
 20
-427.0461874980001
 30
0.0
 10
471.1754351117447
 20
-421.908452162544
 30
0.0
 10
470.7756654738335
 20
-416.6138275676364
 30
0.0
 10
470.5974332358327
 20
-411.1735799792087
 30
0.0
 10
470.6412721013206
 20
-405.5993329460143
 30
0.0
 10
470.9072374438496
 20
-399.9030309186199
 30
0.0
 10
471.3949028861565
 20
-394.0968939755953
 30
0.0
 10
472.1033584868732
 20
-388.1933956130527
 30
0.0
 10
473.0312092710233
 20
-382.205240400566
 30
0.0
 10
474.1765762544852
 20
-376.1453316588061
 30
0.0
 10
475.5370995532776
 20
-370.0267393067497
 30
0.0
 10
477.1099432502213
 20
-363.8626680346408
 30
0.0
 10
478.8918017629523
 20
-357.6664258565565
 30
0.0
 10
480.8789075091641
 20
-351.4513930551706
 30
0.0
 10
483.0670397131131
 20
-345.2309915074358
 30
0.0
 10
485.4515342350953
 20
-339.0186543725982
 30
0.0
 10
488.0272943347364
 20
-332.8277961248632
 30
0.0
 10
490.7888023003899
 20
-326.6717829186015
 30
0.0
 10
493.7301318922958
 20
-320.5639032814038
 30
0.0
 10
496.8449615577873
 20
-314.5173391379759
 30
0.0
 10
500.1265883840225
 20
-308.5451371749252
 30
0.0
 10
503.5679420870574
 20
-302.6601817105291
 30
0.0
 10
507.161598248446
 20
-296.8751698122834
 30
0.0
 10
510.8997965021783
 20
-291.202579132536
 30
0.0
 10
514.7744580770785
 20
-285.6546396253029
 30
0.0
 10
518.7772055414662
 20
-280.2433041505321
 30
0.0
 10
522.8993780339131
 20
-274.9802265845032
 30
0.0
 10
527.1320497301313
 20
-269.8767361799945
 30
0.0
 10
531.4660489004075
 20
-264.9438124539669
 30
0.0
 10
535.8919775601213
 20
-260.1920606304179
 30
0.0
 10
540.400231727838
 20
-255.6316876652266
 30
0.0
 10
544.9810223194881
 20
-251.2724788829941
 30
0.0
 10
549.6243967248216
 20
-247.123775262568
 30
0.0
 10
554.3202611338106
 20
-243.1944514199375
 30
0.0
 10
559.0584037046252
 20
-239.4928943593673
 30
0.0
 10
563.8285186933348
 20
-236.0269830912262
 30
0.0
 10
568.6202316823355
 20
-232.8040692835378
 30
0.0
 10
573.4231260931728
 20
-229.8309591122989
 30
0.0
 10
578.2267710567551
 20
-227.1138968425112
 30
0.0
 10
583.0207511097431
 20
-224.6585497886786
 30
0.0
 10
587.794677851088
 20
-222.470006775816
 30
0.0
 10
592.5382338758493
 20
-220.552753698457
 30
0.0
 10
597.2411991788797
 20
-218.9106904331831
 30
0.0
 10
601.8935443547889
 20
-217.547029398341
 30
0.0
 10
606.485303286739
 20
-216.4646657715075
 30
0.0
 10
611.0071710275935
 20
-215.6648524398685
 30
0.0
 10
615.4484030691866
 20
-215.1522223317889
 30
0.0
 10
619.8047760163572
 20
-214.9161346106868
 30
0.0
 10
624.0489214336465
 20
-215.0004756721724
 30
0.0
 10
626.8671301535985
 20
-215.1635295076626
 30
0.0
 10
628.2336083946908
 20
-215.3774080637401
 30
0.0
 10
628.2572141842257
 20
-215.3811027966886
 30
0.0
  0
SPLINE
  5
173
330
1F
100
AcDbEntity
  8
0
  6
Continuous
 62
     7
370
    25
100
AcDbSpline
210
0.0
220
0.0
230
1.0
 70
     8
 71
     3
 72
    13
 73
     9
 74
     0
 42
0.00000001
 43
0.00000001
 40
0.0
 40
0.0
 40
0.0
 40
0.0
 40
0.0884811926552064
 40
0.3131877944236404
 40
0.5300342937928101
 40
0.7392297751211676
 40
0.9449828409040778
 40
1.0
 40
1.0
 40
1.0
 40
1.0
 10
685.263719388614
 20
-253.2642392729803
 30
0.0
 10
685.3855282284446
 20
-253.3351316557854
 30
0.0
 10
685.816682474257
 20
-253.5860621455979
 30
0.0
 10
686.3915740968886
 20
-254.2933004302246
 30
0.0
 10
686.9703370378089
 20
-255.3810961858198
 30
0.0
 10
687.3371172637287
 20
-256.7013853304112
 30
0.0
 10
687.464788096705
 20
-257.8316108472406
 30
0.0
 10
687.4722516574705
 20
-258.505195744159
 30
0.0
 10
687.4738263154294
 20
-258.6473083164651
 30
0.0
  0
SPLINE
  5
174
330
1F
100
AcDbEntity
  8
0
  6
Continuous
 62
     7
370
    25
100
AcDbSpline
210
0.0
220
0.0
230
1.0
 70
     8
 71
     3
 72
    23
 73
    19
 74
     0
 42
0.00000001
 43
0.00000001
 40
0.0
 40
0.0
 40
0.0
 40
0.0
 40
0.0335894183173929
 40
0.0980090686472637
 40
0.162613637727573
 40
0.227377298980583
 40
0.2922707044179138
 40
0.3572397387519057
 40
0.4222220655242416
 40
0.4871348730787358
 40
0.5519085973445526
 40
0.6164811775628357
 40
0.6808078259984893
 40
0.7448964574291516
 40
0.8088825689857884
 40
0.873022383188425
 40
0.9380494480027629
 40
0.9999999999999999
 40
0.9999999999999999
 40
0.9999999999999999
 40
0.9999999999999999
 10
687.4738263154294
 20
-258.6473083164651
 30
0.0
 10
687.4680995046352
 20
-258.9290391292455
 30
0.0
 10
687.4513894983188
 20
-259.7510889280522
 30
0.0
 10
687.2627845263492
 20
-261.2121986956339
 30
0.0
 10
686.8381616435115
 20
-263.022283636229
 30
0.0
 10
686.2072538104063
 20
-264.8700716957355
 30
0.0
 10
685.3873130574808
 20
-266.7061475758003
 30
0.0
 10
684.3966612199808
 20
-268.4849626115043
 30
0.0
 10
683.2601505711086
 20
-270.1613341486022
 30
0.0
 10
682.00694597386
 20
-271.6931552195815
 30
0.0
 10
680.6702153985344
 20
-273.0424370758927
 30
0.0
 10
679.2861446179583
 20
-274.1767267768394
 30
0.0
 10
677.8929648231451
 20
-275.0705613024003
 30
0.0
 10
676.5299696637211
 20
-275.7061956140257
 30
0.0
 10
675.2343227597097
 20
-276.0775550723982
 30
0.0
 10
674.0424129234638
 20
-276.1806011879733
 30
0.0
 10
672.9875368738864
 20
-276.0539029851097
 30
0.0
 10
672.4071974685932
 20
-275.7737403800814
 30
0.0
 10
672.1240582240047
 20
-275.6370530767101
 30
0.0
  0
SPLINE
  5
175
330
1F
100
AcDbEntity
  8
0
  6
Continuous
 62
     7
370
    25
100
AcDbSpline
210
0.0
220
0.0
230
1.0
 70
     8
 71
     3
 72
    13
 73
     9
 74
     0
 42
0.00000001
 43
0.00000001
 40
0.0
 40
0.0
 40
0.0
 40
0.0
 40
0.0884811926552059
 40
0.3131877944236405
 40
0.5300342937928068
 40
0.7392297751211822
 40
0.9449828409040866
 40
1.0
 40
1.0
 40
1.0
 40
1.0
 10
559.752265727988
 20
-470.6564533069746
 30
0.0
 10
559.8740745678184
 20
-470.7273456897797
 30
0.0
 10
560.305228813631
 20
-470.9782761795921
 30
0.0
 10
560.8801204362625
 20
-471.6855144642188
 30
0.0
 10
561.4588833771829
 20
-472.7733102198141
 30
0.0
 10
561.8256636031026
 20
-474.0935993644055
 30
0.0
 10
561.9533344360789
 20
-475.223824881235
 30
0.0
 10
561.9607979968443
 20
-475.8974097781533
 30
0.0
 10
561.9623726548033
 20
-476.0395223504593
 30
0.0
  0
SPLINE
  5
176
330
1F
100
AcDbEntity
  8
0
  6
Continuous
 62
     7
370
    25
100
AcDbSpline
210
0.0
220
0.0
230
1.0
 70
     8
 71
     3
 72
    23
 73
    19
 74
     0
 42
0.00000001
 43
0.00000001
 40
0.0
 40
0.0
 40
0.0
 40
0.0
 40
0.0335894183173931
 40
0.0980090686472694
 40
0.1626136377275771
 40
0.2273772989805912
 40
0.2922707044179191
 40
0.3572397387519185
 40
0.4222220655242492
 40
0.4871348730787394
 40
0.5519085973445612
 40
0.61648117756284
 40
0.6808078259984957
 40
0.7448964574291608
 40
0.8088825689857913
 40
0.8730223831884282
 40
0.9380494480027652
 40
0.9999999999999999
 40
0.9999999999999999
 40
0.9999999999999999
 40
0.9999999999999999
 10
561.9623726548033
 20
-476.0395223504593
 30
0.0
 10
561.9566458440091
 20
-476.3212531632398
 30
0.0
 10
561.9399358376927
 20
-477.1433029620467
 30
0.0
 10
561.751330865723
 20
-478.6044127296282
 30
0.0
 10
561.3267079828854
 20
-480.4144976702235
 30
0.0
 10
560.6958001497801
 20
-482.26228572973
 30
0.0
 10
559.8758593968547
 20
-484.0983616097948
 30
0.0
 10
558.8852075593546
 20
-485.8771766454988
 30
0.0
 10
557.7486969104824
 20
-487.5535481825967
 30
0.0
 10
556.4954923132337
 20
-489.0853692535759
 30
0.0
 10
555.1587617379082
 20
-490.4346511098871
 30
0.0
 10
553.7746909573322
 20
-491.5689408108337
 30
0.0
 10
552.3815111625189
 20
-492.4627753363946
 30
0.0
 10
551.0185160030949
 20
-493.09840964802
 30
0.0
 10
549.7228690990835
 20
-493.4697691063924
 30
0.0
 10
548.5309592628377
 20
-493.5728152219675
 30
0.0
 10
547.4760832132603
 20
-493.446117019104
 30
0.0
 10
546.895743807967
 20
-493.1659544140757
 30
0.0
 10
546.6126045633787
 20
-493.0292671107044
 30
0.0
  0
SPLINE
  5
177
330
1F
100
AcDbEntity
  8
0
  6
Continuous
 62
     7
370
    25
100
AcDbSpline
210
0.0
220
0.0
230
1.0
 70
     8
 71
     3
 72
    13
 73
     9
 74
     0
 42
0.00000001
 43
0.00000001
 40
0.0
 40
0.0
 40
0.0
 40
0.0
 40
0.0884811926552378
 40
0.3131877944236954
 40
0.5300342937928463
 40
0.7392297751212277
 40
0.9449828409041261
 40
1.0
 40
1.0
 40
1.0
 40
1.0
 10
668.448373064008
 20
-190.5035350257728
 30
0.0
 10
668.5701819038386
 20
-190.5744274085779
 30
0.0
 10
669.0013361496511
 20
-190.8253578983904
 30
0.0
 10
669.5762277722827
 20
-191.5325961830173
 30
0.0
 10
670.1549907132031
 20
-192.6203919386125
 30
0.0
 10
670.5217709391227
 20
-193.9406810832039
 30
0.0
 10
670.649441772099
 20
-195.0709066000333
 30
0.0
 10
670.6569053328644
 20
-195.7444914969515
 30
0.0
 10
670.6584799908233
 20
-195.8866040692575
 30
0.0
  0
SPLINE
  5
178
330
1F
100
AcDbEntity
  8
0
  6
Continuous
 62
     7
370
    25
100
AcDbSpline
210
0.0
220
0.0
230
1.0
 70
     8
 71
     3
 72
    23
 73
    19
 74
     0
 42
0.00000001
 43
0.00000001
 40
0.0
 40
0.0
 40
0.0
 40
0.0
 40
0.033589418317393
 40
0.0980090686472631
 40
0.1626136377275719
 40
0.227377298980581
 40
0.2922707044179125
 40
0.3572397387519099
 40
0.4222220655242448
 40
0.4871348730787393
 40
0.5519085973445604
 40
0.6164811775628414
 40
0.6808078259984949
 40
0.7448964574291597
 40
0.808882568985795
 40
0.8730223831884291
 40
0.9380494480027661
 40
1.0
 40
1.0
 40
1.0
 40
1.0
 10
670.6584799908233
 20
-195.8866040692575
 30
0.0
 10
670.6527531800292
 20
-196.1683348820379
 30
0.0
 10
670.6360431737128
 20
-196.9903846808446
 30
0.0
 10
670.447438201743
 20
-198.4514944484264
 30
0.0
 10
670.0228153189055
 20
-200.2615793890214
 30
0.0
 10
669.3919074858003
 20
-202.1093674485279
 30
0.0
 10
668.5719667328748
 20
-203.9454433285928
 30
0.0
 10
667.5813148953747
 20
-205.7242583642968
 30
0.0
 10
666.4448042465026
 20
-207.4006299013948
 30
0.0
 10
665.1915996492537
 20
-208.9324509723741
 30
0.0
 10
663.8548690739282
 20
-210.2817328286852
 30
0.0
 10
662.4707982933521
 20
-211.4160225296319
 30
0.0
 10
661.0776184985389
 20
-212.3098570551928
 30
0.0
 10
659.714623339115
 20
-212.9454913668182
 30
0.0
 10
658.4189764351034
 20
-213.3168508251906
 30
0.0
 10
657.2270665988576
 20
-213.4198969407657
 30
0.0
 10
656.1721905492802
 20
-213.2931987379021
 30
0.0
 10
655.591851143987
 20
-213.0130361328739
 30
0.0
 10
655.3087118993986
 20
-212.8763488295025
 30
0.0
  0
SPLINE
  5
179
330
1F
100
AcDbEntity
  8
0
  6
Continuous
 62
     7
370
    25
100
AcDbSpline
210
0.0
220
0.0
230
1.0
 70
     8
 71
     3
 72
    13
 73
     9
 74
     0
 42
0.00000001
 43
0.00000001
 40
0.0
 40
0.0
 40
0.0
 40
0.0
 40
0.0884811926551849
 40
0.3131877944236322
 40
0.5300342937927895
 40
0.7392297751211626
 40
0.944982840904064
 40
1.0
 40
1.0
 40
1.0
 40
1.0
 10
496.9965388976794
 20
-487.4668219811529
 30
0.0
 10
497.1183477375099
 20
-487.537714363958
 30
0.0
 10
497.5495019833223
 20
-487.7886448537705
 30
0.0
 10
498.1243936059539
 20
-488.4958831383971
 30
0.0
 10
498.7031565468744
 20
-489.5836788939923
 30
0.0
 10
499.0699367727941
 20
-490.9039680385837
 30
0.0
 10
499.1976076057703
 20
-492.0341935554132
 30
0.0
 10
499.2050711665358
 20
-492.7077784523315
 30
0.0
 10
499.2066458244948
 20
-492.8498910246376
 30
0.0
  0
SPLINE
  5
17A
330
1F
100
AcDbEntity
  8
0
  6
Continuous
 62
     7
370
    25
100
AcDbSpline
210
0.0
220
0.0
230
1.0
 70
     8
 71
     3
 72
    23
 73
    19
 74
     0
 42
0.00000001
 43
0.00000001
 40
0.0
 40
0.0
 40
0.0
 40
0.0
 40
0.0335894183173931
 40
0.0980090686472632
 40
0.1626136377275717
 40
0.2273772989805847
 40
0.2922707044179088
 40
0.3572397387519069
 40
0.4222220655242485
 40
0.4871348730787416
 40
0.551908597344559
 40
0.6164811775628393
 40
0.6808078259984962
 40
0.7448964574291578
 40
0.8088825689857898
 40
0.8730223831884227
 40
0.9380494480027612
 40
0.9999999999999999
 40
0.9999999999999999
 40
0.9999999999999999
 40
0.9999999999999999
 10
499.2066458244948
 20
-492.8498910246376
 30
0.0
 10
499.2009190137007
 20
-493.1316218374181
 30
0.0
 10
499.1842090073841
 20
-493.9536716362248
 30
0.0
 10
498.9956040354145
 20
-495.4147814038064
 30
0.0
 10
498.5709811525769
 20
-497.2248663444017
 30
0.0
 10
497.9400733194717
 20
-499.072654403908
 30
0.0
 10
497.1201325665463
 20
-500.9087302839729
 30
0.0
 10
496.1294807290463
 20
-502.687545319677
 30
0.0
 10
494.992970080174
 20
-504.3639168567749
 30
0.0
 10
493.7397654829252
 20
-505.8957379277542
 30
0.0
 10
492.4030349075997
 20
-507.2450197840654
 30
0.0
 10
491.0189641270236
 20
-508.379309485012
 30
0.0
 10
489.6257843322103
 20
-509.2731440105731
 30
0.0
 10
488.2627891727865
 20
-509.9087783221983
 30
0.0
 10
486.9671422687751
 20
-510.2801377805708
 30
0.0
 10
485.7752324325292
 20
-510.3831838961458
 30
0.0
 10
484.7203563829518
 20
-510.2564856932823
 30
0.0
 10
484.1400169776585
 20
-509.976323088254
 30
0.0
 10
483.8568777330701
 20
-509.8396357848827
 30
0.0
  0
SPLINE
  5
17B
330
1F
100
AcDbEntity
  8
0
  6
Continuous
 62
     7
370
    25
100
AcDbSpline
210
0.0
220
0.0
230
1.0
 70
     8
 71
     3
 72
    13
 73
     9
 74
     0
 42
0.00000001
 43
0.00000001
 40
0.0
 40
0.0
 40
0.0
 40
0.0
 40
0.0884811926551858
 40
0.3131877944236329
 40
0.5300342937927901
 40
0.739229775121163
 40
0.9449828409040641
 40
1.0
 40
1.0
 40
1.0
 40
1.0
 10
622.5079925583105
 20
-163.9740964133306
 30
0.0
 10
622.6298013981411
 20
-164.0449887961357
 30
0.0
 10
623.0609556439535
 20
-164.2959192859481
 30
0.0
 10
623.6358472665851
 20
-165.0031575705747
 30
0.0
 10
624.2146102075055
 20
-166.0909533261701
 30
0.0
 10
624.5813904334252
 20
-167.4112424707615
 30
0.0
 10
624.7090612664016
 20
-168.5414679875909
 30
0.0
 10
624.7165248271671
 20
-169.2150528845092
 30
0.0
 10
624.718099485126
 20
-169.3571654568154
 30
0.0
  0
SPLINE
  5
17C
330
1F
100
AcDbEntity
  8
0
  6
Continuous
 62
     7
370
    25
100
AcDbSpline
210
0.0
220
0.0
230
1.0
 70
     8
 71
     3
 72
    23
 73
    19
 74
     0
 42
0.00000001
 43
0.00000001
 40
0.0
 40
0.0
 40
0.0
 40
0.0
 40
0.0335894183173932
 40
0.0980090686472632
 40
0.1626136377275717
 40
0.2273772989805848
 40
0.2922707044179089
 40
0.3572397387519071
 40
0.4222220655242487
 40
0.4871348730787419
 40
0.5519085973445592
 40
0.6164811775628396
 40
0.6808078259984965
 40
0.7448964574291581
 40
0.8088825689857901
 40
0.8730223831884231
 40
0.9380494480027617
 40
1.0
 40
1.0
 40
1.0
 40
1.0
 10
624.718099485126
 20
-169.3571654568154
 30
0.0
 10
624.7123726743318
 20
-169.6388962695958
 30
0.0
 10
624.6956626680153
 20
-170.4609460684026
 30
0.0
 10
624.5070576960458
 20
-171.9220558359842
 30
0.0
 10
624.0824348132081
 20
-173.7321407765793
 30
0.0
 10
623.4515269801029
 20
-175.5799288360858
 30
0.0
 10
622.6315862271775
 20
-177.4160047161506
 30
0.0
 10
621.6409343896775
 20
-179.1948197518547
 30
0.0
 10
620.5044237408051
 20
-180.8711912889526
 30
0.0
 10
619.2512191435565
 20
-182.403012359932
 30
0.0
 10
617.9144885682309
 20
-183.7522942162431
 30
0.0
 10
616.5304177876549
 20
-184.8865839171898
 30
0.0
 10
615.1372379928416
 20
-185.7804184427507
 30
0.0
 10
613.7742428334177
 20
-186.416052754376
 30
0.0
 10
612.4785959294063
 20
-186.7874122127485
 30
0.0
 10
611.2866860931605
 20
-186.8904583283235
 30
0.0
 10
610.231810043583
 20
-186.7637601254601
 30
0.0
 10
609.6514706382898
 20
-186.4835975204317
 30
0.0
 10
609.3683313937014
 20
-186.3469102170605
 30
0.0
  0
SPLINE
  5
17D
330
1F
100
AcDbEntity
  8
0
  6
Continuous
 62
     7
370
    25
100
AcDbSpline
210
0.0
220
0.0
230
1.0
 70
     8
 71
     3
 72
    13
 73
     9
 74
     0
 42
0.00000001
 43
0.00000001
 40
0.0
 40
0.0
 40
0.0
 40
0.0
 40
0.0884811926552237
 40
0.3131877944236601
 40
0.5300342937928263
 40
0.7392297751211987
 40
0.9449828409041225
 40
1.0
 40
1.0
 40
1.0
 40
1.0
 10
451.0561583919821
 20
-460.9373833687109
 30
0.0
 10
451.1779672318127
 20
-461.008275751516
 30
0.0
 10
451.6091214776251
 20
-461.2592062413285
 30
0.0
 10
452.1840131002566
 20
-461.9664445259552
 30
0.0
 10
452.7627760411771
 20
-463.0542402815505
 30
0.0
 10
453.1295562670968
 20
-464.3745294261419
 30
0.0
 10
453.2572271000729
 20
-465.5047549429714
 30
0.0
 10
453.2646906608385
 20
-466.1783398398896
 30
0.0
 10
453.2662653187974
 20
-466.3204524121956
 30
0.0
  0
SPLINE
  5
17E
330
1F
100
AcDbEntity
  8
0
  6
Continuous
 62
     7
370
    25
100
AcDbSpline
210
0.0
220
0.0
230
1.0
 70
     8
 71
     3
 72
    23
 73
    19
 74
     0
 42
0.00000001
 43
0.00000001
 40
0.0
 40
0.0
 40
0.0
 40
0.0
 40
0.0335894183173933
 40
0.098009068647264
 40
0.1626136377275733
 40
0.227377298980583
 40
0.292270704417914
 40
0.3572397387519051
 40
0.4222220655242401
 40
0.4871348730787287
 40
0.5519085973445503
 40
0.6164811775628295
 40
0.6808078259984837
 40
0.7448964574291441
 40
0.8088825689857818
 40
0.8730223831884171
 40
0.9380494480027537
 40
0.9999999999999999
 40
0.9999999999999999
 40
0.9999999999999999
 40
0.9999999999999999
 10
453.2662653187974
 20
-466.3204524121956
 30
0.0
 10
453.2605385080033
 20
-466.602183224976
 30
0.0
 10
453.2438285016868
 20
-467.4242330237828
 30
0.0
 10
453.0552235297172
 20
-468.8853427913645
 30
0.0
 10
452.6306006468795
 20
-470.6954277319595
 30
0.0
 10
451.9996928137744
 20
-472.543215791466
 30
0.0
 10
451.1797520608488
 20
-474.379291671531
 30
0.0
 10
450.189100223349
 20
-476.1581067072348
 30
0.0
 10
449.0525895744768
 20
-477.8344782443327
 30
0.0
 10
447.7993849772281
 20
-479.3662993153118
 30
0.0
 10
446.4626544019026
 20
-480.7155811716231
 30
0.0
 10
445.0785836213265
 20
-481.8498708725698
 30
0.0
 10
443.6854038265133
 20
-482.7437053981307
 30
0.0
 10
442.3224086670894
 20
-483.3793397097561
 30
0.0
 10
441.026761763078
 20
-483.7506991681287
 30
0.0
 10
439.834851926832
 20
-483.8537452837038
 30
0.0
 10
438.7799758772545
 20
-483.7270470808404
 30
0.0
 10
438.1996364719612
 20
-483.4468844758121
 30
0.0
 10
437.9164972273728
 20
-483.3101971724407
 30
0.0
  0
SPLINE
  5
17F
330
1F
100
AcDbEntity
  8
0
  6
Continuous
 62
     7
370
    25
100
AcDbSpline
210
0.0
220
0.0
230
1.0
 70
     8
 71
     3
 72
    13
 73
     9
 74
     0
 42
0.00000001
 43
0.00000001
 40
0.0
 40
0.0
 40
0.0
 40
0.0
 40
0.0884811926552186
 40
0.3131877944236692
 40
0.5300342937928336
 40
0.7392297751212078
 40
0.9449828409041175
 40
1.0
 40
1.0
 40
1.0
 40
1.0
 10
559.752265728002
 20
-180.7844650875089
 30
0.0
 10
559.8740745678326
 20
-180.855357470314
 30
0.0
 10
560.305228813645
 20
-181.1062879601265
 30
0.0
 10
560.8801204362766
 20
-181.8135262447532
 30
0.0
 10
561.4588833771971
 20
-182.9013220003486
 30
0.0
 10
561.8256636031167
 20
-184.22161114494
 30
0.0
 10
561.953334436093
 20
-185.3518366617694
 30
0.0
 10
561.9607979968584
 20
-186.0254215586877
 30
0.0
 10
561.9623726548174
 20
-186.1675341309937
 30
0.0
  0
SPLINE
  5
180
330
1F
100
AcDbEntity
  8
0
  6
Continuous
 62
     7
370
    25
100
AcDbSpline
210
0.0
220
0.0
230
1.0
 70
     8
 71
     3
 72
    23
 73
    19
 74
     0
 42
0.00000001
 43
0.00000001
 40
0.0
 40
0.0
 40
0.0
 40
0.0
 40
0.0335894183173931
 40
0.0980090686472694
 40
0.1626136377275771
 40
0.2273772989805912
 40
0.2922707044179191
 40
0.3572397387519185
 40
0.4222220655242492
 40
0.4871348730787394
 40
0.5519085973445612
 40
0.61648117756284
 40
0.6808078259984957
 40
0.7448964574291608
 40
0.8088825689857913
 40
0.8730223831884282
 40
0.9380494480027652
 40
0.9999999999999999
 40
0.9999999999999999
 40
0.9999999999999999
 40
0.9999999999999999
 10
561.9623726548174
 20
-186.1675341309937
 30
0.0
 10
561.9566458440232
 20
-186.4492649437741
 30
0.0
 10
561.9399358377068
 20
-187.2713147425808
 30
0.0
 10
561.7513308657371
 20
-188.7324245101627
 30
0.0
 10
561.3267079828995
 20
-190.5425094507578
 30
0.0
 10
560.6958001497943
 20
-192.3902975102643
 30
0.0
 10
559.8758593968688
 20
-194.2263733903292
 30
0.0
 10
558.8852075593687
 20
-196.0051884260332
 30
0.0
 10
557.7486969104965
 20
-197.6815599631311
 30
0.0
 10
556.4954923132478
 20
-199.2133810341102
 30
0.0
 10
555.1587617379223
 20
-200.5626628904214
 30
0.0
 10
553.7746909573463
 20
-201.696952591368
 30
0.0
 10
552.381511162533
 20
-202.5907871169291
 30
0.0
 10
551.018516003109
 20
-203.2264214285543
 30
0.0
 10
549.7228690990976
 20
-203.5977808869268
 30
0.0
 10
548.5309592628518
 20
-203.7008270025019
 30
0.0
 10
547.4760832132744
 20
-203.5741287996384
 30
0.0
 10
546.8957438079811
 20
-203.2939661946101
 30
0.0
 10
546.6126045633928
 20
-203.1572788912387
 30
0.0
  0
SPLINE
  5
181
330
1F
100
AcDbEntity
  8
0
  6
Continuous
 62
     7
370
    25
100
AcDbSpline
210
0.0
220
0.0
230
1.0
 70
     8
 71
     3
 72
    13
 73
     9
 74
     0
 42
0.00000001
 43
0.00000001
 40
0.0
 40
0.0
 40
0.0
 40
0.0
 40
0.0884811926552392
 40
0.3131877944236848
 40
0.5300342937928422
 40
0.7392297751212261
 40
0.944982840904146
 40
1.0
 40
1.0
 40
1.0
 40
1.0
 10
434.2408120673761
 20
-398.1766791215034
 30
0.0
 10
434.3626209072067
 20
-398.2475715043084
 30
0.0
 10
434.7937751530192
 20
-398.4985019941209
 30
0.0
 10
435.3686667756506
 20
-399.2057402787478
 30
0.0
 10
435.9474297165711
 20
-400.2935360343431
 30
0.0
 10
436.3142099424907
 20
-401.6138251789346
 30
0.0
 10
436.4418807754669
 20
-402.7440506957639
 30
0.0
 10
436.4493443362324
 20
-403.4176355926821
 30
0.0
 10
436.4509189941913
 20
-403.559748164988
 30
0.0
  0
SPLINE
  5
182
330
1F
100
AcDbEntity
  8
0
  6
Continuous
 62
     7
370
    25
100
AcDbSpline
210
0.0
220
0.0
230
1.0
 70
     8
 71
     3
 72
    23
 73
    19
 74
     0
 42
0.00000001
 43
0.00000001
 40
0.0
 40
0.0
 40
0.0
 40
0.0
 40
0.033589418317393
 40
0.0980090686472637
 40
0.1626136377275731
 40
0.2273772989805832
 40
0.292270704417914
 40
0.357239738751906
 40
0.4222220655242419
 40
0.487134873078736
 40
0.5519085973445529
 40
0.616481177562836
 40
0.6808078259984898
 40
0.744896457429152
 40
0.8088825689857889
 40
0.8730223831884255
 40
0.9380494480027636
 40
0.9999999999999999
 40
0.9999999999999999
 40
0.9999999999999999
 40
0.9999999999999999
 10
436.4509189941913
 20
-403.559748164988
 30
0.0
 10
436.4451921833972
 20
-403.8414789777685
 30
0.0
 10
436.4284821770808
 20
-404.6635287765752
 30
0.0
 10
436.2398772051112
 20
-406.1246385441568
 30
0.0
 10
435.8152543222733
 20
-407.934723484752
 30
0.0
 10
435.1843464891683
 20
-409.7825115442585
 30
0.0
 10
434.3644057362428
 20
-411.6185874243233
 30
0.0
 10
433.3737538987428
 20
-413.3974024600273
 30
0.0
 10
432.2372432498706
 20
-415.0737739971252
 30
0.0
 10
430.9840386526218
 20
-416.6055950681044
 30
0.0
 10
429.6473080772962
 20
-417.9548769244157
 30
0.0
 10
428.2632372967202
 20
-419.0891666253623
 30
0.0
 10
426.870057501907
 20
-419.9830011509233
 30
0.0
 10
425.507062342483
 20
-420.6186354625486
 30
0.0
 10
424.2114154384716
 20
-420.9899949209212
 30
0.0
 10
423.0195056022258
 20
-421.0930410364962
 30
0.0
 10
421.9646295526483
 20
-420.9663428336327
 30
0.0
 10
421.384290147355
 20
-420.6861802286044
 30
0.0
 10
421.1011509027667
 20
-420.549492925233
 30
0.0
  0
SPLINE
  5
183
330
1F
100
AcDbEntity
  8
0
  6
Continuous
 62
     7
370
    25
100
AcDbSpline
210
0.0
220
0.0
230
1.0
 70
     8
 71
     3
 72
    13
 73
     9
 74
     0
 42
0.00000001
 43
0.00000001
 40
0.0
 40
0.0
 40
0.0
 40
0.0
 40
0.0884811926552711
 40
0.3131877944237246
 40
0.5300342937928989
 40
0.7392297751212734
 40
0.9449828409041856
 40
1.0
 40
1.0
 40
1.0
 40
1.0
 10
496.9965388976917
 20
-236.4303163375923
 30
0.0
 10
497.1183477375224
 20
-236.5012087203974
 30
0.0
 10
497.5495019833349
 20
-236.75213921021
 30
0.0
 10
498.1243936059663
 20
-237.4593774948369
 30
0.0
 10
498.7031565468869
 20
-238.5471732504323
 30
0.0
 10
499.0699367728063
 20
-239.8674623950238
 30
0.0
 10
499.1976076057825
 20
-240.9976879118531
 30
0.0
 10
499.205071166548
 20
-241.6712728087711
 30
0.0
 10
499.2066458245069
 20
-241.8133853810769
 30
0.0
  0
SPLINE
  5
184
330
1F
100
AcDbEntity
  8
0
  6
Continuous
 62
     7
370
    25
100
AcDbSpline
210
0.0
220
0.0
230
1.0
 70
     8
 71
     3
 72
    23
 73
    19
 74
     0
 42
0.00000001
 43
0.00000001
 40
0.0
 40
0.0
 40
0.0
 40
0.0
 40
0.0335894183173932
 40
0.0980090686472633
 40
0.1626136377275718
 40
0.2273772989805848
 40
0.292270704417909
 40
0.3572397387519071
 40
0.4222220655242488
 40
0.487134873078742
 40
0.5519085973445593
 40
0.6164811775628399
 40
0.6808078259984915
 40
0.7448964574291584
 40
0.8088825689857958
 40
0.8730223831884342
 40
0.9380494480027735
 40
1.0
 40
1.0
 40
1.0
 40
1.0
 10
499.2066458245069
 20
-241.8133853810769
 30
0.0
 10
499.2009190137128
 20
-242.0951161938573
 30
0.0
 10
499.1842090073963
 20
-242.9171659926641
 30
0.0
 10
498.9956040354267
 20
-244.3782757602458
 30
0.0
 10
498.570981152589
 20
-246.1883607008408
 30
0.0
 10
497.9400733194839
 20
-248.0361487603473
 30
0.0
 10
497.1201325665584
 20
-249.8722246404122
 30
0.0
 10
496.1294807290584
 20
-251.6510396761162
 30
0.0
 10
494.9929700801861
 20
-253.3274112132142
 30
0.0
 10
493.7397654829373
 20
-254.8592322841934
 30
0.0
 10
492.4030349076118
 20
-256.2085141405047
 30
0.0
 10
491.0189641270357
 20
-257.3428038414513
 30
0.0
 10
489.6257843322225
 20
-258.2366383670122
 30
0.0
 10
488.2627891727986
 20
-258.8722726786376
 30
0.0
 10
486.9671422687871
 20
-259.2436321370101
 30
0.0
 10
485.7752324325412
 20
-259.3466782525851
 30
0.0
 10
484.7203563829638
 20
-259.2199800497216
 30
0.0
 10
484.1400169776706
 20
-258.9398174446933
 30
0.0
 10
483.8568777330823
 20
-258.803130141322
 30
0.0
  0
SPLINE
  5
185
330
1F
100
AcDbEntity
  8
0
  6
Continuous
 62
     7
370
    25
100
AcDbSpline
210
0.0
220
0.0
230
1.0
 70
     8
 71
     3
 72
    13
 73
     9
 74
     0
 42
0.00000001
 43
0.00000001
 40
0.0
 40
0.0
 40
0.0
 40
0.0
 40
0.0884811926552655
 40
0.3131877944236875
 40
0.5300342937928638
 40
0.73922977512125
 40
0.9449828409041733
 40
0.9999999999999999
 40
0.9999999999999999
 40
0.9999999999999999
 40
0.9999999999999999
 10
451.0561583919892
 20
-316.0013892589782
 30
0.0
 10
451.1779672318199
 20
-316.0722816417834
 30
0.0
 10
451.6091214776323
 20
-316.3232121315959
 30
0.0
 10
452.1840131002637
 20
-317.0304504162227
 30
0.0
 10
452.7627760411842
 20
-318.118246171818
 30
0.0
 10
453.1295562671038
 20
-319.4385353164096
 30
0.0
 10
453.2572271000801
 20
-320.5687608332389
 30
0.0
 10
453.2646906608454
 20
-321.242345730157
 30
0.0
 10
453.2662653188044
 20
-321.3844583024628
 30
0.0
  0
SPLINE
  5
186
330
1F
100
AcDbEntity
  8
0
  6
Continuous
 62
     7
370
    25
100
AcDbSpline
210
0.0
220
0.0
230
1.0
 70
     8
 71
     3
 72
    23
 73
    19
 74
     0
 42
0.00000001
 43
0.00000001
 40
0.0
 40
0.0
 40
0.0
 40
0.0
 40
0.0335894183173931
 40
0.0980090686472633
 40
0.1626136377275723
 40
0.2273772989805815
 40
0.2922707044179131
 40
0.3572397387519107
 40
0.4222220655242458
 40
0.4871348730787404
 40
0.5519085973445617
 40
0.6164811775628427
 40
0.6808078259984963
 40
0.7448964574291613
 40
0.8088825689857976
 40
0.873022383188434
 40
0.9380494480027681
 40
0.9999999999999999
 40
0.9999999999999999
 40
0.9999999999999999
 40
0.9999999999999999
 10
453.2662653188044
 20
-321.3844583024628
 30
0.0
 10
453.2605385080103
 20
-321.6661891152433
 30
0.0
 10
453.2438285016938
 20
-322.48823891405
 30
0.0
 10
453.0552235297241
 20
-323.9493486816316
 30
0.0
 10
452.6306006468865
 20
-325.7594336222268
 30
0.0
 10
451.9996928137813
 20
-327.6072216817333
 30
0.0
 10
451.1797520608559
 20
-329.4432975617981
 30
0.0
 10
450.1891002233559
 20
-331.2221125975022
 30
0.0
 10
449.0525895744836
 20
-332.8984841346001
 30
0.0
 10
447.7993849772348
 20
-334.4303052055794
 30
0.0
 10
446.4626544019092
 20
-335.7795870618907
 30
0.0
 10
445.0785836213331
 20
-336.9138767628372
 30
0.0
 10
443.6854038265199
 20
-337.8077112883982
 30
0.0
 10
442.322408667096
 20
-338.4433456000235
 30
0.0
 10
441.0267617630846
 20
-338.814705058396
 30
0.0
 10
439.8348519268387
 20
-338.9177511739711
 30
0.0
 10
438.7799758772613
 20
-338.7910529711075
 30
0.0
 10
438.1996364719681
 20
-338.5108903660792
 30
0.0
 10
437.9164972273797
 20
-338.3742030627079
 30
0.0
  0
LWPOLYLINE
  5
187
330
1F
100
AcDbEntity
  8
0
  6
Continuous
 62
     7
370
    25
100
AcDbPolyline
 90
      154
 70
   128
 43
0.0
 10
699.7875348144
 20
-251.29963531
 10
699.6632331612
 20
-244.3818254234
 10
699.2905378022
 20
-237.6191961631
 10
698.6700771861
 20
-231.0231508522
 10
697.8028975498
 20
-224.6048119151
 10
696.6904611545
 20
-218.3750021232
 10
695.3346438196
 20
-212.3442263453
 10
693.7377317597
 20
-206.5226538335
 10
691.9024177299
 20
-200.9201010761
 10
689.8317964848
 20
-195.5460152445
 10
687.5293595603
 20
-190.4094582632
 10
684.9989893859
 20
-185.5190915292
 10
682.2449527381
 20
-180.8831613071
 10
679.2718935457
 20
-176.5094848242
 10
676.0848250592
 20
-172.4054370882
 10
672.689121397
 20
-168.5779384523
 10
669.0905084836
 20
-165.0334429449
 10
665.2950543945
 20
-161.7779273873
 10
661.309159124
 20
-158.8168813152
 10
657.1395437931
 20
-156.1552977222
 10
652.7932393166
 20
-153.7976646403
 10
648.277574547
 20
-151.7479575722
 10
643.6001639168
 20
-150.0096327878
 10
638.7688945983
 20
-148.5856214958
 10
633.7919132047
 20
-147.4783249016
 10
628.6776120523
 20
-146.6896101575
 10
623.4346150101
 20
-146.2208072152
 10
618.071762957
 20
-146.0727065824
 10
612.5980988748
 20
-146.2455579902
 10
607.0228525994
 20
-146.7390699722
 10
601.3554252574
 20
-147.5524103555
 10
595.6053734133
 20
-148.6842076642
 10
589.7823929554
 20
-150.1325534319
 10
583.8963027459
 20
-151.8950054201
 10
577.9570280645
 20
-153.968591736
 10
571.9745838721
 20
-156.349815844
 10
565.9590579228
 20
-159.0346624616
 10
559.9205937542
 20
-162.0186043299
 10
553.869373583
 20
-165.296609848
 10
547.8156011354
 20
-168.863151557
 10
541.7694844411
 20
-172.7122154607
 10
535.7412186207
 20
-176.8373111666
 10
529.7409686942
 20
-181.2314828302
 10
523.7788524402
 20
-185.887320884
 10
517.8649233356
 20
-190.7969745318
 10
512.0091536027
 20
-195.9521649868
 10
506.221417394
 20
-201.3441994316
 10
500.5114741421
 20
-206.9639856766
 10
494.888952103
 20
-212.8020474905
 10
489.3633321208
 20
-218.8485405807
 10
483.9439316408
 20
-225.0932691918
 10
478.6398889983
 20
-231.5257032986
 10
473.460148009
 20
-238.1349963622
 10
468.4134428881
 20
-244.9100036193
 10
463.508283522
 20
-251.8393008748
 10
458.7529411191
 20
-258.9112037662
 10
454.1554342625
 20
-266.1137874652
 10
449.7235153888
 20
-273.4349067865
 10
445.4646577158
 20
-280.8622166664
 10
441.386042641
 20
-288.3831929805
 10
437.4945476321
 20
-295.9851536612
 10
433.79673463
 20
-303.655280083
 10
430.2988389841
 20
-311.3806386777
 10
427.0067589376
 20
-319.1482027429
 10
423.9260456823
 20
-326.9448744085
 10
421.0618939976
 20
-334.7575067222
 10
418.4191334913
 20
-342.5729258186
 10
416.0022204554
 20
-350.377953133
 10
413.815230352
 20
-358.1594276237
 10
411.8618509412
 20
-365.9042279643
 10
410.1453760626
 20
-373.5992946694
 10
408.6687000811
 20
-381.2316521158
 10
407.4343130066
 20
-388.7884304221
 10
406.4442962948
 20
-396.2568871506
 10
405.7003193379
 20
-403.6244287938
 10
405.2036366494
 20
-410.8786320096
 10
404.9550857486
 20
-418.0072645705
 10
404.9550857486
 20
-424.9983059891
 10
405.2036366494
 20
-431.8399677883
 10
405.7003193379
 20
-438.5207133784
 10
406.4442962948
 20
-445.029277511
 10
407.4343130066
 20
-451.3546852746
 10
408.6687000811
 20
-457.4862706007
 10
410.1453760626
 20
-463.4136942494
 10
411.8618509412
 20
-469.1269612435
 10
413.815230352
 20
-474.6164377223
 10
416.0022204554
 20
-479.8728671867
 10
418.4191334913
 20
-484.8873861075
 10
421.0618939976
 20
-489.6515388713
 10
423.9260456823
 20
-494.1572920388
 10
427.0067589376
 20
-498.3970478909
 10
430.2988389841
 20
-502.36365724
 10
433.79673463
 20
-506.0504314856
 10
437.4945476321
 20
-509.451153892
 10
441.386042641
 20
-512.5600900722
 10
445.4646577158
 20
-515.3719976562
 10
449.7235153888
 20
-517.8821351319
 10
454.1554342625
 20
-520.0862698396
 10
458.7529411191
 20
-521.9806851095
 10
463.508283522
 20
-523.562186529
 10
468.4134428881
 20
-524.8281073288
 10
473.4601480091
 20
-525.7763128802
 10
478.6398889983
 20
-526.405204294
 10
483.9439316408
 20
-526.7137211171
 10
489.3633321208
 20
-526.7013431203
 10
494.888952103
 20
-526.3680911756
 10
500.5114741421
 20
-525.7145272214
 10
506.221417394
 20
-524.7417533142
 10
512.0091536027
 20
-523.451409771
 10
517.8649233356
 20
-521.8456724028
 10
523.7788524402
 20
-519.9272488461
 10
529.7409686942
 20
-517.699373997
 10
535.7412186207
 20
-515.1658045565
 10
541.7694844411
 20
-512.3308126958
 10
547.8156011354
 20
-509.1991788527
 10
553.869373583
 20
-505.77618367
 10
559.9205937542
 20
-502.0675990922
 10
565.9590579228
 20
-498.0796786318
 10
571.9745838721
 20
-493.8191468248
 10
577.9570280646
 20
-489.2931878918
 10
583.8963027459
 20
-484.5094336232
 10
589.7823929554
 20
-479.4759505111
 10
595.6053734133
 20
-474.2012261466
 10
601.3554252574
 20
-468.6941549084
 10
607.0228525994
 20
-462.9640229643
 10
612.5980988748
 20
-457.0204926131
 10
618.071762957
 20
-450.8735859915
 10
623.4346150101
 20
-444.5336681747
 10
628.6776120523
 20
-438.0114296984
 10
633.7919132047
 20
-431.317868532
 10
638.7688945983
 20
-424.4642715341
 10
643.6001639168
 20
-417.4621954195
 10
648.277574547
 20
-410.3234472726
 10
652.7932393166
 20
-403.0600646378
 10
657.1395437931
 20
-395.6842952214
 10
661.309159124
 20
-388.2085762391
 10
665.2950543945
 20
-380.6455134443
 10
669.0905084836
 20
-373.0078598719
 10
672.689121397
 20
-365.3084943336
 10
676.0848250592
 20
-357.5603997015
 10
679.2718935457
 20
-349.7766410159
 10
682.2449527381
 20
-341.9703434548
 10
684.9989893859
 20
-334.1546702019
 10
687.5293595603
 20
-326.3428002505
 10
689.8317964848
 20
-318.5479061804
 10
691.9024177299
 20
-310.7831319465
 10
693.7377317597
 20
-303.0615707147
 10
695.3346438196
 20
-295.396242784
 10
696.6904611545
 20
-287.8000736314
 10
697.8028975498
 20
-280.2858721166
 10
698.6700771861
 20
-272.8663088832
 10
699.2905378022
 20
-265.5538949932
 10
699.6632331612
 20
-258.3609608307
 10
699.7875348144
 20
-251.29963531
  0
ARC
  5
188
330
1F
100
AcDbEntity
  8
0
  6
Continuous
 62
     7
370
    25
100
AcDbCircle
 10
484.6645661717
 20
-455.3063920924
 30
0.0
 40
72.63973309888698
100
AcDbArc
 50
214.6788882901
 51
265.5046605299
  0
ARC
  5
189
330
1F
100
AcDbEntity
  8
0
  6
Continuous
 62
     7
370
    25
100
AcDbCircle
 10
621.4022788199
 20
-218.4222521896
 30
0.0
 40
72.73610231258085
100
AcDbArc
 50
35.0690040697
 51
85.4749475587
  0
ARC
  5
18A
330
1F
100
AcDbEntity
  8
0
  6
Continuous
 62
     7
370
    25
100
AcDbCircle
 10
641.6968862907
 20
-231.4575893425
 30
0.0
 40
73.94013102633139
100
AcDbArc
 50
35.3009734312
 51
59.6857794919
  0
ARC
  5
18B
330
1F
100
AcDbEntity
  8
0
  6
Continuous
 62
     7
370
    25
100
AcDbCircle
 10
506.2967063457
 20
-465.8622999008
 30
0.0
 40
74.36202365908302
100
AcDbArc
 50
240.3719977965
 51
265.6816482157
  0
LWPOLYLINE
  5
18C
330
1F
100
AcDbEntity
  8
0
  6
Continuous
 62
     7
370
    25
100
AcDbPolyline
 90
       40
 70
   128
 43
0.0
 10
453.5591585376
 20
-320.9762542466
 10
453.4309626782
 20
-322.8840131461
 10
453.0496953053
 20
-324.890373881
 10
452.4252310436
 20
-326.9433727621
 10
451.5737431894
 20
-328.9898381969
 10
450.517284831
 20
-330.9767678055
 10
449.2832176849
 20
-332.8527011548
 10
447.903503442
 20
-334.5690525563
 10
446.4138759763
 20
-336.0813694104
 10
444.8529158569
 20
-337.3504835049
 10
443.2610511308
 20
-338.3435254514
 10
441.6795102583
 20
-339.0347759851
 10
440.1492543172
 20
-339.4063320802
 10
438.7099161327
 20
-339.4485706292
 10
437.3987738076
 20
-339.1603976757
 10
436.2497852395
 20
-338.5492767478
 10
435.2927086287
 20
-337.6310355567
 10
434.5523317567
 20
-336.4294560668
 10
434.0478299957
 20
-334.9756585557
 10
433.7922696761
 20
-333.3072956154
 10
433.7922696761
 20
-331.4675769696
 10
434.0478299957
 20
-329.5041503649
 10
434.5523317567
 20
-327.467867519
 10
435.2927086287
 20
-325.4114670881
 10
436.2497852395
 20
-323.3882087631
 10
437.3987738076
 20
-321.4504938719
 10
438.7099161327
 20
-319.6485082122
 10
440.1492543172
 20
-318.0289222662
 10
441.6795102583
 20
-316.6336824592
 10
443.2610511308
 20
-315.4989247691
 10
444.8529158569
 20
-314.6540388243
 10
446.4138759763
 20
-314.1209067267
 10
447.903503442
 20
-313.9133363178
 10
449.2832176849
 20
-314.036703562
 10
450.517284831
 20
-314.4878133126
 10
451.5737431894
 20
-315.254982064
 10
452.4252310436
 20
-316.3183405484
 10
453.0496953053
 20
-317.6503483398
 10
453.4309626782
 20
-319.2165071358
 10
453.5591585376
 20
-320.9762542466
  0
LWPOLYLINE
  5
18D
330
1F
100
AcDbEntity
  8
0
  6
Continuous
 62
     7
370
    25
100
AcDbPolyline
 90
       40
 70
   128
 43
0.0
 10
453.5591585376
 20
-465.9122483563
 10
453.4309626782
 20
-467.8200072558
 10
453.0496953052
 20
-469.8263679907
 10
452.4252310435
 20
-471.8793668718
 10
451.5737431894
 20
-473.9258323066
 10
450.517284831
 20
-475.9127619152
 10
449.2832176849
 20
-477.7886952645
 10
447.903503442
 20
-479.505046666
 10
446.4138759763
 20
-481.0173635201
 10
444.8529158569
 20
-482.2864776146
 10
443.2610511308
 20
-483.2795195611
 10
441.6795102583
 20
-483.9707700948
 10
440.1492543172
 20
-484.34232619
 10
438.7099161327
 20
-484.3845647389
 10
437.3987738076
 20
-484.0963917854
 10
436.2497852395
 20
-483.4852708576
 10
435.2927086287
 20
-482.5670296664
 10
434.5523317567
 20
-481.3654501765
 10
434.0478299956
 20
-479.9116526654
 10
433.7922696761
 20
-478.2432897251
 10
433.7922696761
 20
-476.4035710793
 10
434.0478299956
 20
-474.4401444746
 10
434.5523317567
 20
-472.4038616288
 10
435.2927086287
 20
-470.3474611979
 10
436.2497852395
 20
-468.3242028728
 10
437.3987738076
 20
-466.3864879816
 10
438.7099161327
 20
-464.5845023219
 10
440.1492543172
 20
-462.964916376
 10
441.6795102583
 20
-461.5696765689
 10
443.2610511308
 20
-460.4349188789
 10
444.8529158569
 20
-459.590032934
 10
446.4138759763
 20
-459.0569008365
 10
447.903503442
 20
-458.8493304275
 10
449.2832176849
 20
-458.9726976718
 10
450.517284831
 20
-459.4238074224
 10
451.5737431894
 20
-460.1909761737
 10
452.4252310435
 20
-461.2543346582
 10
453.0496953052
 20
-462.5863424495
 10
453.4309626782
 20
-464.1525012456
 10
453.5591585376
 20
-465.9122483563
  0
LWPOLYLINE
  5
18E
330
1F
100
AcDbEntity
  8
0
  6
Continuous
 62
     7
370
    25
100
AcDbPolyline
 90
       40
 70
   128
 43
0.0
 10
562.2552658736
 20
-475.6313182945
 10
562.1270700142
 20
-477.539077194
 10
561.7458026413
 20
-479.5454379289
 10
561.1213383796
 20
-481.5984368101
 10
560.2698505254
 20
-483.6449022449
 10
559.213392167
 20
-485.6318318535
 10
557.9793250209
 20
-487.5077652028
 10
556.599610778
 20
-489.2241166043
 10
555.1099833123
 20
-490.7364334584
 10
553.5490231929
 20
-492.0055475529
 10
551.9571584668
 20
-492.9985894994
 10
550.3756175943
 20
-493.6898400331
 10
548.8453616532
 20
-494.0613961282
 10
547.4060234687
 20
-494.1036346772
 10
546.0948811436
 20
-493.8154617237
 10
544.9458925755
 20
-493.2043407958
 10
543.9888159647
 20
-492.2860996047
 10
543.2484390927
 20
-491.0845201148
 10
542.7439373317
 20
-489.6307226037
 10
542.4883770121
 20
-487.9623596634
 10
542.4883770121
 20
-486.1226410176
 10
542.7439373317
 20
-484.1592144129
 10
543.2484390927
 20
-482.122931567
 10
543.9888159647
 20
-480.0665311361
 10
544.9458925755
 20
-478.0432728111
 10
546.0948811436
 20
-476.1055579199
 10
547.4060234687
 20
-474.3035722602
 10
548.8453616532
 20
-472.6839863142
 10
550.3756175943
 20
-471.2887465072
 10
551.9571584668
 20
-470.1539888171
 10
553.5490231929
 20
-469.3091028723
 10
555.1099833123
 20
-468.7759707747
 10
556.599610778
 20
-468.5684003658
 10
557.9793250209
 20
-468.69176761
 10
559.213392167
 20
-469.1428773606
 10
560.2698505254
 20
-469.910046112
 10
561.1213383796
 20
-470.9734045964
 10
561.7458026413
 20
-472.3054123878
 10
562.1270700142
 20
-473.8715711838
 10
562.2552658736
 20
-475.6313182945
  0
LWPOLYLINE
  5
18F
330
1F
100
AcDbEntity
  8
0
  6
Continuous
 62
     7
370
    25
100
AcDbPolyline
 90
       40
 70
   128
 43
0.0
 10
687.7667195342
 20
-258.2391042606
 10
687.6385236748
 20
-260.1468631601
 10
687.2572563019
 20
-262.153223895
 10
686.6327920402
 20
-264.2062227761
 10
685.7813041861
 20
-266.2526882109
 10
684.7248458277
 20
-268.2396178195
 10
683.4907786816
 20
-270.1155511688
 10
682.1110644386
 20
-271.8319025703
 10
680.6214369729
 20
-273.3442194244
 10
679.0604768535
 20
-274.6133335189
 10
677.4686121274
 20
-275.6063754654
 10
675.8870712549
 20
-276.2976259991
 10
674.3568153139
 20
-276.6691820942
 10
672.9174771293
 20
-276.7114206432
 10
671.6063348042
 20
-276.4232476897
 10
670.4573462361
 20
-275.8121267618
 10
669.5002696253
 20
-274.8938855707
 10
668.7598927533
 20
-273.6923060808
 10
668.2553909923
 20
-272.2385085697
 10
667.9998306727
 20
-270.5701456294
 10
667.9998306727
 20
-268.7304269836
 10
668.2553909923
 20
-266.7670003789
 10
668.7598927533
 20
-264.730717533
 10
669.5002696253
 20
-262.6743171021
 10
670.4573462361
 20
-260.6510587771
 10
671.6063348042
 20
-258.7133438859
 10
672.9174771293
 20
-256.9113582262
 10
674.3568153139
 20
-255.2917722802
 10
675.8870712549
 20
-253.8965324732
 10
677.4686121274
 20
-252.7617747831
 10
679.0604768535
 20
-251.9168888383
 10
680.6214369729
 20
-251.3837567407
 10
682.1110644386
 20
-251.1761863318
 10
683.4907786816
 20
-251.2995535761
 10
684.7248458277
 20
-251.7506633266
 10
685.7813041861
 20
-252.517832078
 10
686.6327920402
 20
-253.5811905624
 10
687.2572563019
 20
-254.9131983538
 10
687.6385236748
 20
-256.4793571499
 10
687.7667195342
 20
-258.2391042606
  0
LWPOLYLINE
  5
190
330
1F
100
AcDbEntity
  8
0
  6
Continuous
 62
     7
370
    25
100
AcDbPolyline
 90
       40
 70
   128
 43
0.0
 10
625.0109927039
 20
-168.9489614009
 10
624.8827968445
 20
-170.8567203004
 10
624.5015294716
 20
-172.8630810353
 10
623.8770652099
 20
-174.9160799165
 10
623.0255773558
 20
-176.9625453512
 10
621.9691189974
 20
-178.9494749599
 10
620.7350518513
 20
-180.8254083091
 10
619.3553376083
 20
-182.5417597107
 10
617.8657101426
 20
-184.0540765648
 10
616.3047500232
 20
-185.3231906592
 10
614.7128852971
 20
-186.3162326057
 10
613.1313444246
 20
-187.0074831394
 10
611.6010884836
 20
-187.3790392346
 10
610.161750299
 20
-187.4212777835
 10
608.8506079739
 20
-187.13310483
 10
607.7016194058
 20
-186.5219839022
 10
606.744542795
 20
-185.603742711
 10
606.004165923
 20
-184.4021632211
 10
605.499664162
 20
-182.94836571
 10
605.2441038424
 20
-181.2800027697
 10
605.2441038424
 20
-179.4402841239
 10
605.499664162
 20
-177.4768575192
 10
606.004165923
 20
-175.4405746734
 10
606.744542795
 20
-173.3841742425
 10
607.7016194058
 20
-171.3609159175
 10
608.8506079739
 20
-169.4232010262
 10
610.161750299
 20
-167.6212153666
 10
611.6010884836
 20
-166.0016294206
 10
613.1313444246
 20
-164.6063896135
 10
614.7128852971
 20
-163.4716319235
 10
616.3047500232
 20
-162.6267459786
 10
617.8657101426
 20
-162.0936138811
 10
619.3553376083
 20
-161.8860434722
 10
620.7350518513
 20
-162.0094107164
 10
621.9691189974
 20
-162.460520467
 10
623.0255773558
 20
-163.2276892183
 10
623.8770652099
 20
-164.2910477028
 10
624.5015294716
 20
-165.6230554941
 10
624.8827968445
 20
-167.1892142902
 10
625.0109927039
 20
-168.9489614009
  0
LWPOLYLINE
  5
191
330
1F
100
AcDbEntity
  8
0
  6
Continuous
 62
     7
370
    25
100
AcDbPolyline
 90
       40
 70
   128
 43
0.0
 10
562.2552658736
 20
-185.7593300751
 10
562.1270700142
 20
-187.6670889746
 10
561.7458026413
 20
-189.6734497095
 10
561.1213383796
 20
-191.7264485906
 10
560.2698505254
 20
-193.7729140254
 10
559.2133921671
 20
-195.759843634
 10
557.979325021
 20
-197.6357769833
 10
556.599610778
 20
-199.3521283848
 10
555.1099833123
 20
-200.8644452389
 10
553.5490231929
 20
-202.1335593334
 10
551.9571584668
 20
-203.1266012799
 10
550.3756175943
 20
-203.8178518136
 10
548.8453616532
 20
-204.1894079088
 10
547.4060234687
 20
-204.2316464577
 10
546.0948811436
 20
-203.9434735042
 10
544.9458925755
 20
-203.3323525764
 10
543.9888159647
 20
-202.4141113852
 10
543.2484390927
 20
-201.2125318953
 10
542.7439373317
 20
-199.7587343842
 10
542.4883770121
 20
-198.0903714439
 10
542.4883770121
 20
-196.2506527981
 10
542.7439373317
 20
-194.2872261934
 10
543.2484390927
 20
-192.2509433476
 10
543.9888159647
 20
-190.1945429166
 10
544.9458925755
 20
-188.1712845916
 10
546.0948811436
 20
-186.2335697004
 10
547.4060234687
 20
-184.4315840407
 10
548.8453616532
 20
-182.8119980948
 10
550.3756175943
 20
-181.4167582877
 10
551.9571584668
 20
-180.2820005977
 10
553.5490231929
 20
-179.4371146528
 10
555.1099833123
 20
-178.9039825553
 10
556.599610778
 20
-178.6964121463
 10
557.979325021
 20
-178.8197793906
 10
559.2133921671
 20
-179.2708891412
 10
560.2698505254
 20
-180.0380578925
 10
561.1213383796
 20
-181.101416377
 10
561.7458026413
 20
-182.4334241683
 10
562.1270700142
 20
-183.9995829644
 10
562.2552658736
 20
-185.7593300751
  0
LWPOLYLINE
  5
192
330
1F
100
AcDbEntity
  8
0
  6
Continuous
 62
     7
370
    25
100
AcDbPolyline
 90
      130
 70
   128
 43
0.0
 10
657.0075745526
 20
-275.9959806927
 10
656.8834632946
 20
-281.9514304556
 10
656.5114238987
 20
-288.0360503579
 10
655.8923388012
 20
-294.2354083537
 10
655.0276764037
 20
-300.5348002505
 10
653.9194875897
 20
-306.9192845869
 10
652.5704008608
 20
-313.3737180712
 10
650.9836161016
 20
-319.8827915005
 10
649.1628969902
 20
-326.4310660716
 10
647.1125620713
 20
-333.0030100007
 10
644.8374745126
 20
-339.5830353629
 10
642.3430305706
 20
-346.155535065
 10
639.6351467907
 20
-352.7049198639
 10
636.720245974
 20
-359.2156553424
 10
633.6052419433
 20
-365.6722987552
 10
630.2975231439
 20
-372.0595356576
 10
626.8049351194
 20
-378.3622162293
 10
623.1357619027
 20
-384.5653912083
 10
619.2987063674
 20
-390.6543473488
 10
615.3028695852
 20
-396.6146423197
 10
611.1577292395
 20
-402.4321389597
 10
606.8731171452
 20
-408.0930388096
 10
602.4591959289
 20
-413.5839148403
 10
597.926434924
 20
-418.8917433005
 10
593.2855853389
 20
-424.0039346077
 10
588.547654756
 20
-428.9083632086
 10
583.7238810232
 20
-433.5933963407
 10
578.8257055989
 20
-438.0479216228
 10
573.864746414
 20
-442.2613734132
 10
568.8527703157
 20
-446.2237578698
 10
563.8016651574
 20
-449.9256766543
 10
558.7234116026
 20
-453.3583492244
 10
553.6300547076
 20
-456.5136336601
 10
548.5336753523
 20
-459.3840459752
 10
543.4463615855
 20
-461.9627778688
 10
538.3801799534
 20
-464.2437128739
 10
533.347146879
 20
-466.2214408645
 10
528.3592001607
 20
-467.8912708884
 10
523.4281706572
 20
-469.2492422933
 10
518.5657542255
 20
-470.292134121
 10
513.7834839804
 20
-471.0174727473
 10
509.0927029383
 20
-471.4235377491
 10
504.5045371138
 20
-471.5093659852
 10
500.0298691292
 20
-471.2747538803
 10
495.6793124027
 20
-470.7202579086
 10
491.4631859741
 20
-469.8471932732
 10
487.3914900295
 20
-468.6576307869
 10
483.4738821818
 20
-467.1543919606
 10
479.7196545641
 20
-465.3410423106
 10
476.1377117895
 20
-463.221882902
 10
472.7365498305
 20
-460.8019401468
 10
469.5242358675
 20
-458.0869538819
 10
466.5083891543
 20
-455.0833637546
 10
463.6961629461
 20
-451.798293949
 10
461.0942275328
 20
-448.2395362876
 10
458.7087544178
 20
-444.4155317505
 10
456.5454016797
 20
-440.335350454
 10
454.6093005521
 20
-436.0086701372
 10
452.9050432531
 20
-431.445753208
 10
451.4366720927
 20
-426.6574224011
 10
450.2076698851
 20
-421.6550351082
 10
449.2209516877
 20
-416.4504564392
 10
448.478857887
 20
-411.0560310798
 10
447.9831486476
 20
-405.484554011
 10
447.7349997369
 20
-399.7492401607
 10
447.7349997369
 20
-393.8636930598
 10
447.9831486476
 20
-387.8418725758
 10
448.478857887
 20
-381.6980618016
 10
449.2209516877
 20
-375.4468331775
 10
450.2076698851
 20
-369.1030139272
 10
451.4366720927
 20
-362.6816508891
 10
452.9050432531
 20
-356.1979748268
 10
454.6093005521
 20
-349.6673643037
 10
456.5454016797
 20
-343.1053092064
 10
458.7087544178
 20
-336.5273740046
 10
461.0942275328
 20
-329.9491608339
 10
463.6961629461
 20
-323.3862724891
 10
466.5083891543
 20
-316.8542754163
 10
469.5242358675
 20
-310.3686627909
 10
472.7365498305
 20
-303.9448177695
 10
476.1377117895
 20
-297.5979770028
 10
479.7196545641
 20
-291.3431944959
 10
483.4738821818
 20
-285.1953059018
 10
487.3914900295
 20
-279.168893333
 10
491.4631859741
 20
-273.2782507744
 10
495.6793124027
 20
-267.5373501793
 10
500.0298691292
 20
-261.9598083297
 10
504.5045371138
 20
-256.5588545385
 10
509.0927029383
 20
-251.3472992715
 10
513.7834839804
 20
-246.3375037621
 10
518.5657542256
 20
-241.5413506915
 10
523.4281706572
 20
-236.9702160052
 10
528.3592001607
 20
-232.6349419294
 10
533.347146879
 20
-228.5458112554
 10
538.3801799534
 20
-224.7125229493
 10
543.4463615855
 20
-221.1441691474
 10
548.5336753523
 20
-217.8492135909
 10
553.6300547076
 20
-214.8354715501
 10
558.7234116026
 20
-212.1100912883
 10
563.8016651574
 20
-209.6795371063
 10
568.8527703157
 20
-207.5495740102
 10
573.864746414
 20
-205.7252540371
 10
578.8257055989
 20
-204.2109042723
 10
583.7238810232
 20
-203.0101165862
 10
588.547654756
 20
-202.1257391147
 10
593.2855853389
 20
-201.5598695032
 10
597.926434924
 20
-201.313849932
 10
602.4591959289
 20
-201.3882639324
 10
606.8731171452
 20
-201.7829350026
 10
611.1577292395
 20
-202.4969270263
 10
615.3028695852
 20
-203.5285464934
 10
619.2987063674
 20
-204.8753465165
 10
623.1357619027
 20
-206.5341326348
 10
626.8049351194
 20
-208.5009703908
 10
630.2975231439
 20
-210.7711946626
 10
633.6052419433
 20
-213.3394207292
 10
636.720245974
 20
-216.199557042
 10
639.6351467907
 20
-219.3448196736
 10
642.3430305706
 20
-222.7677484087
 10
644.8374745126
 20
-226.4602244384
 10
647.1125620713
 20
-230.4134896176
 10
649.1628969902
 20
-234.6181672379
 10
650.9836161016
 20
-239.0642842687
 10
652.5704008608
 20
-243.7412950115
 10
653.9194875897
 20
-248.6381061135
 10
655.0276764037
 20
-253.74310288
 10
655.8923388012
 20
-259.0441768224
 10
656.5114238987
 20
-264.5287543792
 10
656.8834632946
 20
-270.1838267382
 10
657.0075745526
 20
-275.9959806927
  0
LWPOLYLINE
  5
193
330
1F
100
AcDbEntity
  8
0
  6
Continuous
 62
     7
370
    25
100
AcDbPolyline
 90
       40
 70
   128
 43
0.0
 10
670.9513732096
 20
-340.4143941231
 10
670.8231773502
 20
-342.3221530226
 10
670.4419099773
 20
-344.3285137575
 10
669.8174457156
 20
-346.3815126386
 10
668.9659578614
 20
-348.4279780734
 10
667.9094995031
 20
-350.414907682
 10
666.675432357
 20
-352.2908410313
 10
665.295718114
 20
-354.0071924328
 10
663.8060906483
 20
-355.5195092869
 10
662.2451305289
 20
-356.7886233814
 10
660.6532658028
 20
-357.7816653279
 10
659.0717249303
 20
-358.4729158616
 10
657.5414689892
 20
-358.8444719568
 10
656.1021308047
 20
-358.8867105057
 10
654.7909884796
 20
-358.5985375522
 10
653.6419999115
 20
-357.9874166243
 10
652.6849233007
 20
-357.0691754332
 10
651.9445464287
 20
-355.8675959433
 10
651.4400446677
 20
-354.4137984322
 10
651.1844843481
 20
-352.7454354919
 10
651.1844843481
 20
-350.9057168461
 10
651.4400446677
 20
-348.9422902414
 10
651.9445464287
 20
-346.9060073956
 10
652.6849233007
 20
-344.8496069646
 10
653.6419999115
 20
-342.8263486396
 10
654.7909884796
 20
-340.8886337484
 10
656.1021308047
 20
-339.0866480887
 10
657.5414689892
 20
-337.4670621428
 10
659.0717249303
 20
-336.0718223357
 10
660.6532658028
 20
-334.9370646457
 10
662.2451305289
 20
-334.0921787008
 10
663.8060906483
 20
-333.5590466033
 10
665.295718114
 20
-333.3514761943
 10
666.675432357
 20
-333.4748434386
 10
667.9094995031
 20
-333.9259531892
 10
668.9659578614
 20
-334.6931219405
 10
669.8174457156
 20
-335.756480425
 10
670.4419099773
 20
-337.0884882163
 10
670.8231773502
 20
-338.6546470124
 10
670.9513732096
 20
-340.4143941231
  0
LWPOLYLINE
  5
194
330
1F
100
AcDbEntity
  8
0
  6
Continuous
 62
     7
370
    25
100
AcDbPolyline
 90
       40
 70
   128
 43
0.0
 10
670.9513732096
 20
-195.4784000133
 10
670.8231773502
 20
-197.3861589128
 10
670.4419099773
 20
-199.3925196477
 10
669.8174457156
 20
-201.4455185289
 10
668.9659578614
 20
-203.4919839637
 10
667.9094995031
 20
-205.4789135723
 10
666.675432357
 20
-207.3548469216
 10
665.295718114
 20
-209.0711983231
 10
663.8060906483
 20
-210.5835151772
 10
662.2451305289
 20
-211.8526292717
 10
660.6532658028
 20
-212.8456712182
 10
659.0717249303
 20
-213.5369217519
 10
657.5414689892
 20
-213.908477847
 10
656.1021308047
 20
-213.950716396
 10
654.7909884796
 20
-213.6625434425
 10
653.6419999115
 20
-213.0514225146
 10
652.6849233007
 20
-212.1331813235
 10
651.9445464287
 20
-210.9316018336
 10
651.4400446677
 20
-209.4778043225
 10
651.1844843481
 20
-207.8094413822
 10
651.1844843481
 20
-205.9697227364
 10
651.4400446677
 20
-204.0062961317
 10
651.9445464287
 20
-201.9700132858
 10
652.6849233007
 20
-199.9136128549
 10
653.6419999115
 20
-197.8903545299
 10
654.7909884796
 20
-195.9526396386
 10
656.1021308047
 20
-194.150653979
 10
657.5414689892
 20
-192.531068033
 10
659.0717249303
 20
-191.135828226
 10
660.6532658028
 20
-190.0010705359
 10
662.2451305289
 20
-189.1561845911
 10
663.8060906483
 20
-188.6230524935
 10
665.295718114
 20
-188.4154820846
 10
666.675432357
 20
-188.5388493288
 10
667.9094995031
 20
-188.9899590794
 10
668.9659578614
 20
-189.7571278308
 10
669.8174457156
 20
-190.8204863152
 10
670.4419099773
 20
-192.1524941066
 10
670.8231773502
 20
-193.7186529026
 10
670.9513732096
 20
-195.4784000133
  0
LWPOLYLINE
  5
195
330
1F
100
AcDbEntity
  8
0
  6
Continuous
 62
     7
370
    25
100
AcDbPolyline
 90
       40
 70
   128
 43
0.0
 10
625.0109927039
 20
-419.9854670445
 10
624.8827968445
 20
-421.893225944
 10
624.5015294716
 20
-423.8995866789
 10
623.8770652099
 20
-425.95258556
 10
623.0255773557
 20
-427.9990509948
 10
621.9691189974
 20
-429.9859806034
 10
620.7350518512
 20
-431.8619139527
 10
619.3553376083
 20
-433.5782653542
 10
617.8657101426
 20
-435.0905822083
 10
616.3047500232
 20
-436.3596963028
 10
614.7128852971
 20
-437.3527382493
 10
613.1313444246
 20
-438.043988783
 10
611.6010884835
 20
-438.4155448781
 10
610.161750299
 20
-438.4577834271
 10
608.8506079739
 20
-438.1696104736
 10
607.7016194058
 20
-437.5584895457
 10
606.744542795
 20
-436.6402483546
 10
606.004165923
 20
-435.4386688647
 10
605.499664162
 20
-433.9848713536
 10
605.2441038424
 20
-432.3165084133
 10
605.2441038424
 20
-430.4767897675
 10
605.499664162
 20
-428.5133631628
 10
606.004165923
 20
-426.477080317
 10
606.744542795
 20
-424.420679886
 10
607.7016194058
 20
-422.397421561
 10
608.8506079739
 20
-420.4597066698
 10
610.161750299
 20
-418.6577210101
 10
611.6010884835
 20
-417.0381350641
 10
613.1313444246
 20
-415.6428952571
 10
614.7128852971
 20
-414.5081375671
 10
616.3047500232
 20
-413.6632516222
 10
617.8657101426
 20
-413.1301195246
 10
619.3553376083
 20
-412.9225491157
 10
620.7350518512
 20
-413.04591636
 10
621.9691189974
 20
-413.4970261106
 10
623.0255773557
 20
-414.2641948619
 10
623.8770652099
 20
-415.3275533463
 10
624.5015294716
 20
-416.6595611377
 10
624.8827968445
 20
-418.2257199338
 10
625.0109927039
 20
-419.9854670445
  0
LWPOLYLINE
  5
196
330
1F
100
AcDbEntity
  8
0
  6
Continuous
 62
     7
370
    25
100
AcDbPolyline
 90
       40
 70
   128
 43
0.0
 10
499.4995390433
 20
-492.4416869687
 10
499.3713431839
 20
-494.3494458682
 10
498.9900758109
 20
-496.3558066031
 10
498.3656115492
 20
-498.4088054843
 10
497.5141236951
 20
-500.4552709191
 10
496.4576653367
 20
-502.4422005277
 10
495.2235981906
 20
-504.3181338769
 10
493.8438839477
 20
-506.0344852785
 10
492.354256482
 20
-507.5468021326
 10
490.7932963626
 20
-508.8159162271
 10
489.2014316365
 20
-509.8089581736
 10
487.619890764
 20
-510.5002087072
 10
486.0896348229
 20
-510.8717648024
 10
484.6502966384
 20
-510.9140033513
 10
483.3391543133
 20
-510.6258303978
 10
482.1901657452
 20
-510.01470947
 10
481.2330891344
 20
-509.0964682789
 10
480.4927122624
 20
-507.8948887889
 10
479.9882105013
 20
-506.4410912779
 10
479.7326501818
 20
-504.7727283375
 10
479.7326501818
 20
-502.9330096917
 10
479.9882105013
 20
-500.9695830871
 10
480.4927122624
 20
-498.9333002412
 10
481.2330891344
 20
-496.8768998103
 10
482.1901657452
 20
-494.8536414853
 10
483.3391543133
 20
-492.915926594
 10
484.6502966384
 20
-491.1139409344
 10
486.0896348229
 20
-489.4943549884
 10
487.619890764
 20
-488.0991151813
 10
489.2014316365
 20
-486.9643574913
 10
490.7932963626
 20
-486.1194715464
 10
492.354256482
 20
-485.5863394489
 10
493.8438839477
 20
-485.37876904
 10
495.2235981906
 20
-485.5021362842
 10
496.4576653367
 20
-485.9532460348
 10
497.5141236951
 20
-486.7204147862
 10
498.3656115492
 20
-487.7837732706
 10
498.9900758109
 20
-489.1157810619
 10
499.3713431839
 20
-490.681939858
 10
499.4995390433
 20
-492.4416869687
  0
LWPOLYLINE
  5
197
330
1F
100
AcDbEntity
  8
0
  6
Continuous
 62
     7
370
    25
100
AcDbPolyline
 90
       40
 70
   128
 43
0.0
 10
436.743812213
 20
-403.1515441091
 10
436.6156163536
 20
-405.0593030086
 10
436.2343489806
 20
-407.0656637435
 10
435.6098847189
 20
-409.1186626246
 10
434.7583968648
 20
-411.1651280594
 10
433.7019385064
 20
-413.152057668
 10
432.4678713603
 20
-415.0279910173
 10
431.0881571174
 20
-416.7443424188
 10
429.5985296517
 20
-418.2566592729
 10
428.0375695323
 20
-419.5257733674
 10
426.4457048062
 20
-420.5188153139
 10
424.8641639337
 20
-421.2100658476
 10
423.3339079926
 20
-421.5816219428
 10
421.8945698081
 20
-421.6238604917
 10
420.583427483
 20
-421.3356875382
 10
419.4344389149
 20
-420.7245666103
 10
418.4773623041
 20
-419.8063254192
 10
417.7369854321
 20
-418.6047459293
 10
417.232483671
 20
-417.1509484182
 10
416.9769233515
 20
-415.4825854779
 10
416.9769233515
 20
-413.6428668321
 10
417.232483671
 20
-411.6794402274
 10
417.7369854321
 20
-409.6431573816
 10
418.4773623041
 20
-407.5867569506
 10
419.4344389149
 20
-405.5634986256
 10
420.583427483
 20
-403.6257837344
 10
421.8945698081
 20
-401.8237980747
 10
423.3339079926
 20
-400.2042121287
 10
424.8641639337
 20
-398.8089723217
 10
426.4457048062
 20
-397.6742146317
 10
428.0375695323
 20
-396.8293286868
 10
429.5985296517
 20
-396.2961965893
 10
431.0881571174
 20
-396.0886261803
 10
432.4678713603
 20
-396.2119934246
 10
433.7019385064
 20
-396.6631031752
 10
434.7583968648
 20
-397.4302719265
 10
435.6098847189
 20
-398.493630411
 10
436.2343489806
 20
-399.8256382023
 10
436.6156163536
 20
-401.3917969984
 10
436.743812213
 20
-403.1515441091
  0
LWPOLYLINE
  5
198
330
1F
100
AcDbEntity
  8
0
  6
Continuous
 62
     7
370
    25
100
AcDbPolyline
 90
       40
 70
   128
 43
0.0
 10
499.4995390433
 20
-241.4051813252
 10
499.3713431839
 20
-243.3129402247
 10
498.990075811
 20
-245.3193009596
 10
498.3656115493
 20
-247.3722998407
 10
497.5141236951
 20
-249.4187652755
 10
496.4576653367
 20
-251.4056948841
 10
495.2235981906
 20
-253.2816282334
 10
493.8438839477
 20
-254.9979796349
 10
492.354256482
 20
-256.510296489
 10
490.7932963626
 20
-257.7794105835
 10
489.2014316365
 20
-258.77245253
 10
487.619890764
 20
-259.4637030637
 10
486.0896348229
 20
-259.8352591588
 10
484.6502966384
 20
-259.8774977078
 10
483.3391543133
 20
-259.5893247543
 10
482.1901657452
 20
-258.9782038264
 10
481.2330891344
 20
-258.0599626353
 10
480.4927122624
 20
-256.8583831454
 10
479.9882105014
 20
-255.4045856343
 10
479.7326501818
 20
-253.736222694
 10
479.7326501818
 20
-251.8965040482
 10
479.9882105014
 20
-249.9330774435
 10
480.4927122624
 20
-247.8967945977
 10
481.2330891344
 20
-245.8403941667
 10
482.1901657452
 20
-243.8171358417
 10
483.3391543133
 20
-241.8794209505
 10
484.6502966384
 20
-240.0774352908
 10
486.0896348229
 20
-238.4578493448
 10
487.619890764
 20
-237.0626095378
 10
489.2014316365
 20
-235.9278518478
 10
490.7932963626
 20
-235.0829659029
 10
492.354256482
 20
-234.5498338053
 10
493.8438839477
 20
-234.3422633964
 10
495.2235981906
 20
-234.4656306407
 10
496.4576653367
 20
-234.9167403913
 10
497.5141236951
 20
-235.6839091426
 10
498.3656115493
 20
-236.747267627
 10
498.990075811
 20
-238.0792754184
 10
499.3713431839
 20
-239.6454342145
 10
499.4995390433
 20
-241.4051813252
  0
ARC
  5
199
330
1F
100
AcDbEntity
  8
0
  6
Continuous
 62
     7
370
    25
100
AcDbCircle
 10
601.2517542931
 20
-253.3433106287
 30
0.0
 40
50.58771562692695
100
AcDbArc
 50
37.8488098242
 51
82.1849801943
  0
ARC
  5
19A
330
1F
100
AcDbEntity
  8
0
  6
Continuous
 62
     7
370
    25
100
AcDbCircle
 10
505.0966428915
 20
-419.9529924664
 30
0.0
 40
50.97979265705261
100
AcDbArc
 50
216.4932521854
 51
265.8435359977
  0
ARC
  5
19B
330
1F
100
AcDbEntity
  8
0
  6
Continuous
 62
     7
370
    25
100
AcDbCircle
 10
528.3686870806
 20
-430.4344197263
 30
0.0
 40
53.68026259832729
100
AcDbArc
 50
219.2621079422
 51
225.7998743098
  0
ARC
  5
19C
330
1F
100
AcDbEntity
  8
0
  6
Continuous
 62
     7
370
    25
100
AcDbCircle
 10
621.6546153989
 20
-269.1147314501
 30
0.0
 40
54.19313498673515
100
AcDbArc
 50
74.2175504436
 51
83.2614481117
  0
LINE
  5
19D
330
1F
100
AcDbEntity
  8
0
  6
Continuous
 62
     7
370
    25
100
AcDbLine
 10
668.5045433317
 20
-335.4320702317
 30
0.0
 11
668.2584568163
 21
-335.2788197508
 31
0.0
  0
LINE
  5
19E
330
1F
100
AcDbEntity
  8
0
  6
Continuous
 62
     7
370
    25
100
AcDbLine
 10
622.564162826
 20
-415.0031431531
 30
0.0
 11
622.3180763106
 21
-414.8498926722
 31
0.0
  0
LINE
  5
19F
330
1F
100
AcDbEntity
  8
0
  6
Continuous
 62
     7
370
    25
100
AcDbLine
 10
685.3198896563
 20
-253.2567803692
 30
0.0
 11
685.073803141
 21
-253.1035298883
 31
0.0
  0
LINE
  5
1A0
330
1F
100
AcDbEntity
  8
0
  6
Continuous
 62
     7
370
    25
100
AcDbLine
 10
559.8084359957
 20
-470.6489944032
 30
0.0
 11
559.5623494803
 21
-470.4957439223
 31
0.0
  0
LINE
  5
1A1
330
1F
100
AcDbEntity
  8
0
  6
Continuous
 62
     7
370
    25
100
AcDbLine
 10
668.5045433317
 20
-190.496076122
 30
0.0
 11
668.2584568163
 21
-190.3428256411
 31
0.0
  0
LINE
  5
1A2
330
1F
100
AcDbEntity
  8
0
  6
Continuous
 62
     7
370
    25
100
AcDbLine
 10
497.0527091654
 20
-487.4593630773
 30
0.0
 11
496.80662265
 21
-487.3061125964
 31
0.0
  0
LINE
  5
1A3
330
1F
100
AcDbEntity
  8
0
  6
Continuous
 62
     7
370
    25
100
AcDbLine
 10
622.564162826
 20
-163.9666375095
 30
0.0
 11
622.3180763106
 21
-163.8133870286
 31
0.0
  0
LINE
  5
1A4
330
1F
100
AcDbEntity
  8
0
  6
Continuous
 62
     7
370
    25
100
AcDbLine
 10
451.1123286597
 20
-460.9299244649
 30
0.0
 11
450.8662421443
 21
-460.776673984
 31
0.0
  0
LINE
  5
1A5
330
1F
100
AcDbEntity
  8
0
  6
Continuous
 62
     7
370
    25
100
AcDbLine
 10
559.8084359957
 20
-180.7770061837
 30
0.0
 11
559.5623494803
 21
-180.6237557028
 31
0.0
  0
LINE
  5
1A6
330
1F
100
AcDbEntity
  8
0
  6
Continuous
 62
     7
370
    25
100
AcDbLine
 10
434.2969823351
 20
-398.1692202177
 30
0.0
 11
434.0508958197
 21
-398.0159697368
 31
0.0
  0
LINE
  5
1A7
330
1F
100
AcDbEntity
  8
0
  6
Continuous
 62
     7
370
    25
100
AcDbLine
 10
497.0527091654
 20
-236.4228574338
 30
0.0
 11
496.80662265
 21
-236.2696069529
 31
0.0
  0
LINE
  5
1A8
330
1F
100
AcDbEntity
  8
0
  6
Continuous
 62
     7
370
    25
100
AcDbLine
 10
451.1123286597
 20
-315.9939303552
 30
0.0
 11
450.8662421443
 21
-315.8406798743
 31
0.0
  0
LWPOLYLINE
  5
1A9
330
1F
100
AcDbEntity
  8
0
  6
Continuous
 62
     1
370
    25
100
AcDbPolyline
 90
       53
 70
   128
 43
0.0
 10
701.2017483768
 20
-251.29963531
 10
701.0768505525
 20
-258.3948280994
 10
700.7023676858
 20
-265.6222607471
 10
700.0789312394
 20
-272.9697461665
 10
699.2075924682
 20
-280.4248948351
 10
698.0898206466
 20
-287.9751356857
 10
696.7275005906
 20
-295.6077373043
 10
695.1229294801
 20
-303.3098293977
 10
693.2788129849
 20
-311.0684244963
 10
691.1982607027
 20
-318.8704398537
 10
688.8847809152
 20
-326.7027195068
 10
686.3422746728
 20
-334.5520564604
 10
683.5750292161
 20
-342.4052149567
 10
680.5877107471
 20
-350.2489527938
 10
677.3853565604
 20
-358.0700436554
 10
673.9733665497
 20
-365.8552994128
 10
670.3574941019
 20
-373.5915923638
 10
666.5438363961
 20
-381.2658773682
 10
662.5388241219
 20
-388.8652138455
 10
658.3492106359
 20
-396.3767875951
 10
653.9820605744
 20
-403.7879324044
 10
649.4447379403
 20
-411.0861514067
 10
644.7448936859
 20
-418.2591381538
 10
639.890452812
 20
-425.2947973673
 10
634.8896010039
 20
-432.181265334
 10
629.7507708293
 20
-438.9069299112
 10
624.4826275182
 20
-445.4604501069
 10
619.0940543522
 20
-451.8307752034
 10
613.5941376844
 20
-458.0071633915
 10
607.9921516188
 20
-463.9791998835
 10
602.2975423711
 20
-469.7368144748
 10
596.5199123407
 20
-475.2702985248
 10
590.6690039189
 20
-480.5703213274
 10
584.7546830609
 20
-485.6279458453
 10
578.7869226497
 20
-490.4346437794
 10
572.7757856793
 20
-494.9823099496
 10
566.7314082866
 20
-499.2632759619
 10
560.6639826592
 20
-503.2703231392
 10
554.5837398493
 20
-506.9966946934
 10
548.5009325218
 20
-510.4361071191
 10
542.425817666
 20
-513.5827607888
 10
536.3686392997
 20
-516.4313497327
 10
530.339611196
 20
-518.9770705854
 10
524.3488996603
 20
-521.2156306856
 10
518.4066063873
 20
-523.1432553145
 10
512.5227514279
 20
-524.756694061
 10
506.7072562925
 20
-526.0532263023
 10
500.9699272216
 20
-527.0306657917
 10
495.32043865
 20
-527.6873643453
 10
489.7683168933
 20
-528.0222146206
 10
484.3229240849
 20
-528.0346519843
 10
478.9934423889
 20
-527.7246554642
 10
478.9712088348
 20
-527.7226644828
  0
LWPOLYLINE
  5
1AA
330
1F
100
AcDbEntity
  8
0
  6
Continuous
 62
     1
370
    25
100
AcDbPolyline
 90
       14
 70
   128
 43
0.0
 10
680.9339174611
 20
-176.6308107175
 10
683.5750292161
 20
-180.545432415
 10
686.3422746728
 20
-185.2035973144
 10
688.8847809152
 20
-190.1174190447
 10
691.1982607027
 20
-195.278611791
 10
693.2788129849
 20
-200.6784726146
 10
695.1229294801
 20
-206.3078961286
 10
696.7275005906
 20
-212.1573898514
 10
698.0898206466
 20
-218.2170902134
 10
699.2075924682
 20
-224.476779189
 10
700.0789312394
 20
-230.9259015263
 10
700.7023676858
 20
-237.5535825461
 10
701.0768505525
 20
-244.3486464791
 10
701.2017483768
 20
-251.29963531
  0
LWPOLYLINE
  5
1AB
330
1F
100
AcDbEntity
  8
0
  6
Continuous
 62
     1
370
    25
100
AcDbPolyline
 90
       14
 70
   128
 43
0.0
 10
722.4149518124
 20
-263.5457569874
 10
722.2900539881
 20
-256.5947681564
 10
721.9155711214
 20
-249.7997042235
 10
721.292134675
 20
-243.1720232036
 10
720.4207959038
 20
-236.7229008663
 10
719.3030240822
 20
-230.4632118908
 10
717.9407040262
 20
-224.4035115288
 10
716.3361329157
 20
-218.5540178059
 10
714.4920164205
 20
-212.9245942919
 10
712.4114641383
 20
-207.5247334683
 10
710.0979843508
 20
-202.3635407221
 10
707.5554781084
 20
-197.4497189918
 10
704.7882326517
 20
-192.7915540924
 10
702.0414807165
 20
-188.7296956456
  0
LWPOLYLINE
  5
1AC
330
1F
100
AcDbEntity
  8
0
  6
Continuous
 62
     1
370
    25
100
AcDbPolyline
 90
       52
 70
   128
 43
0.0
 10
500.6973857324
 20
-540.013214739
 10
505.5361275205
 20
-540.2807736616
 10
510.9815203289
 20
-540.2683362979
 10
516.5336420856
 20
-539.9334860226
 10
522.1831306572
 20
-539.2767874691
 10
527.9204597281
 20
-538.2993479796
 10
533.7359548635
 20
-537.0028157383
 10
539.6198098229
 20
-535.3893769918
 10
545.5621030959
 20
-533.4617523629
 10
551.5528146316
 20
-531.2231922627
 10
557.5818427353
 20
-528.6774714101
 10
563.6390211016
 20
-525.8288824662
 10
569.7141359574
 20
-522.6822287964
 10
575.7969432849
 20
-519.2428163707
 10
581.8771860948
 20
-515.5164448165
 10
587.9446117222
 20
-511.5093976392
 10
593.9889891149
 20
-507.228431627
 10
600.0001260853
 20
-502.6807654568
 10
605.9678864965
 20
-497.8740675227
 10
611.8822073545
 20
-492.8164430048
 10
617.7331157763
 20
-487.5164202021
 10
623.5107458067
 20
-481.9829361522
 10
629.2053550544
 20
-476.2253215608
 10
634.80734112
 20
-470.2532850689
 10
640.3072577878
 20
-464.0768968807
 10
645.6958309538
 20
-457.7065717842
 10
650.9639742649
 20
-451.1530515886
 10
656.1028044395
 20
-444.4273870114
 10
661.1036562476
 20
-437.5409190446
 10
665.9580971215
 20
-430.5052598312
 10
670.6579413759
 20
-423.3322730841
 10
675.19526401
 20
-416.0340540817
 10
679.5624140715
 20
-408.6229092724
 10
683.7520275575
 20
-401.1113355228
 10
687.7570398317
 20
-393.5119990456
 10
691.5706975375
 20
-385.8377140411
 10
695.1865699853
 20
-378.1014210902
 10
698.598559996
 20
-370.3161653327
 10
701.8009141827
 20
-362.4950744712
 10
704.7882326517
 20
-354.651336634
 10
707.5554781084
 20
-346.7981781378
 10
710.0979843508
 20
-338.9488411841
 10
712.4114641383
 20
-331.116561531
 10
714.4920164205
 20
-323.3145461737
 10
716.3361329157
 20
-315.555951075
 10
717.9407040262
 20
-307.8538589816
 10
719.3030240822
 20
-300.2212573631
 10
720.4207959038
 20
-292.6710165124
 10
721.292134675
 20
-285.2158678438
 10
721.9155711214
 20
-277.8683824244
 10
722.2900539881
 20
-270.6409497768
 10
722.4149518124
 20
-263.5457569874
  0
LWPOLYLINE
  5
1AD
330
1F
100
AcDbEntity
  8
0
  6
Continuous
 62
     1
370
    25
100
AcDbPolyline
 90
       57
 70
   128
 43
0.0
 10
608.1304334655
 20
-203.2254421067
 10
606.5011316051
 20
-203.0146866079
 10
602.0620686163
 20
-202.6734225499
 10
597.5049622848
 20
-202.6553254563
 10
592.840791079
 20
-202.9604389244
 10
588.0807913957
 20
-203.5880279092
 10
583.2364304911
 20
-204.536580494
 10
578.319378855
 20
-205.8038115323
 10
573.3414820955
 20
-207.3866681537
 10
568.3147324018
 20
-209.281337118
 10
563.2512396543
 20
-211.4832540016
 10
558.1632022505
 20
-213.9871141938
 10
553.0628777182
 20
-216.7868856763
 10
547.9625531859
 20
-219.8758235542
 10
542.8745157821
 20
-223.2464863056
 10
537.8110230346
 20
-226.8907537087
 10
532.7842733409
 20
-230.7998464043
 10
527.8063765814
 20
-234.9643470454
 10
522.8893249453
 20
-239.3742229855
 10
518.0449640408
 20
-244.018850447
 10
513.2849643575
 20
-248.8870401155
 10
508.6207931516
 20
-253.9670640958
 10
504.0636868201
 20
-259.2466841652
 10
499.6246238313
 20
-264.7131812564
 10
495.3142982768
 20
-270.3533860991
 10
491.1430941083
 20
-276.1537109459
 10
487.121060122
 20
-282.1001823061
 10
483.2578857502
 20
-288.1784746095
 10
479.5628777182
 20
-294.3739447174
 10
476.0449376241
 20
-300.6716671996
 10
472.7125404936
 20
-307.0564702912
 10
469.5737143633
 20
-313.5129724422
 10
466.6360209404
 20
-320.0256193735
 10
463.9065373855
 20
-326.578721548
 10
461.3918392637
 20
-333.1564919688
 10
459.0979847029
 20
-339.7430842107
 10
457.0304997998
 20
-346.322630596
 10
455.1943653065
 20
-352.8792804213
 10
453.5940046319
 20
-359.3972381428
 10
452.233273185
 20
-365.8608014295
 10
451.115449087
 20
-372.2543989912
 10
450.2432252742
 20
-378.5626280915
 10
449.61870301
 20
-384.7702916539
 10
449.2433868234
 20
-390.862434873
 10
449.1181808838
 20
-396.8243812424
 10
449.2433868234
 20
-402.641767911
 10
449.61870301
 20
-408.3005802848
 10
450.2432252742
 20
-413.7871857891
 10
451.115449087
 20
-419.0883667107
 10
452.233273185
 20
-424.1913520404
 10
453.5940046319
 20
-429.0838482396
 10
455.1943653065
 20
-433.7540688564
 10
457.0304997998
 20
-438.1907629202
 10
459.0979847029
 20
-442.3832420466
 10
461.3918392637
 20
-446.321406186
 10
463.9065373855
 20
-449.9957679561
 10
464.1126157969
 20
-450.2721082592
  0
LWPOLYLINE
  5
1AE
330
1F
100
AcDbEntity
  8
0
  6
Continuous
 62
     1
370
    25
100
AcDbPolyline
 90
       57
 70
   128
 43
0.0
 10
486.8062648654
 20
-464.4069917842
 10
485.1197408211
 20
-462.2418896334
 10
482.6050426993
 20
-458.5675278633
 10
480.3111881385
 20
-454.6293637239
 10
478.2437032354
 20
-450.4368845976
 10
476.4075687421
 20
-446.0001905337
 10
474.8072080675
 20
-441.3299699169
 10
473.4464766206
 20
-436.4374737177
 10
472.3286525226
 20
-431.334488388
 10
471.4564287098
 20
-426.0333074665
 10
470.8319064456
 20
-420.5467019622
 10
470.456590259
 20
-414.8878895884
 10
470.3313843194
 20
-409.0705029198
 10
470.456590259
 20
-403.1085565504
 10
470.8319064456
 20
-397.0164133312
 10
471.4564287098
 20
-390.8087497688
 10
472.3286525226
 20
-384.5005206686
 10
473.4464766206
 20
-378.1069231068
 10
474.8072080675
 20
-371.6433598202
 10
476.4075687421
 20
-365.1254020986
 10
478.2437032354
 20
-358.5687522734
 10
480.3111881385
 20
-351.989205888
 10
482.6050426993
 20
-345.4026136461
 10
485.1197408211
 20
-338.8248432254
 10
487.849224376
 20
-332.2717410508
 10
490.7869177989
 20
-325.7590941196
 10
493.9257439292
 20
-319.3025919686
 10
497.2581410597
 20
-312.917788877
 10
500.7760811538
 20
-306.6200663947
 10
504.4710891858
 20
-300.4245962868
 10
508.3342635576
 20
-294.3463039835
 10
512.3562975439
 20
-288.3998326232
 10
516.5275017124
 20
-282.5995077764
 10
520.8378272669
 20
-276.9593029337
 10
525.2768902557
 20
-271.4928058425
 10
529.8339965872
 20
-266.2131857732
 10
534.4981677931
 20
-261.1331617928
 10
539.2581674764
 20
-256.2649721243
 10
544.1025283809
 20
-251.6203446628
 10
549.019580017
 20
-247.2104687228
 10
553.9974767765
 20
-243.0459680816
 10
559.0242264702
 20
-239.1368753861
 10
564.0877192177
 20
-235.4926079829
 10
569.1757566215
 20
-232.1219452315
 10
574.2760811538
 20
-229.0330073536
 10
579.3764056861
 20
-226.2332358712
 10
584.4644430899
 20
-223.7293756789
 10
589.5279358374
 20
-221.5274587953
 10
594.5546855311
 20
-219.6327898311
 10
599.5325822906
 20
-218.0499332097
 10
604.4496339267
 20
-216.7827021713
 10
609.2939948313
 20
-215.8341495866
 10
614.0539945145
 20
-215.2065606017
 10
618.7181657204
 20
-214.9014471336
 10
623.2752720519
 20
-214.9195442273
 10
627.7143350407
 20
-215.2608082853
 10
628.0135821934
 20
-215.2959668694
  0
LWPOLYLINE
  5
1AF
330
1F
100
AcDbEntity
  8
0
  6
Continuous
 62
     1
370
    25
100
AcDbPolyline
 90
       21
 70
   128
 43
0.0
 10
668.2584568163
 20
-335.2788197508
 10
667.9848201511
 20
-335.1336250714
 10
666.7867448246
 20
-334.748443281
 10
665.4515253179
 20
-334.6848349977
 10
664.0155829385
 20
-334.9445352895
 10
662.5180864514
 20
-335.5204602095
 10
660.999883657
 20
-336.3969000272
 10
659.5023871699
 20
-337.549947749
 10
658.0664447905
 20
-338.9481512389
 10
656.7312252838
 20
-340.5533711505
 10
655.5331499573
 20
-342.3218212692
 10
654.5048991827
 20
-344.2052628856
 10
653.6745209606
 20
-346.1523206223
 10
653.0646658444
 20
-348.1098838199
 10
652.6919690918
 20
-350.0245552572
 10
652.5665968988
 20
-351.8441076886
 10
652.6919690918
 20
-353.518908467
 10
653.0646658444
 20
-355.0032733932
 10
653.6745209606
 20
-356.2567128612
 10
654.5048991827
 20
-357.24503631
 10
655.3109360339
 20
-357.8253099002
  0
LWPOLYLINE
  5
1B0
330
1F
100
AcDbEntity
  8
0
  6
Continuous
 62
     1
370
    25
100
AcDbPolyline
 90
       21
 70
   128
 43
0.0
 10
622.3180763106
 20
-414.8498926722
 10
622.0444396454
 20
-414.7046979927
 10
620.8463643189
 20
-414.3195162024
 10
619.5111448122
 20
-414.2559079191
 10
618.0752024328
 20
-414.5156082109
 10
616.5777059457
 20
-415.0915331309
 10
615.0595031513
 20
-415.9679729485
 10
613.5620066642
 20
-417.1210206704
 10
612.1260642848
 20
-418.5192241603
 10
610.7908447781
 20
-420.1244440719
 10
609.5927694516
 20
-421.8928941906
 10
608.564518677
 20
-423.776335807
 10
607.7341404549
 20
-425.7233935437
 10
607.1242853387
 20
-427.6809567413
 10
606.7515885861
 20
-429.5956281786
 10
606.6262163931
 20
-431.41518061
 10
606.7515885861
 20
-433.0899813884
 10
607.1242853387
 20
-434.5743463145
 10
607.7341404549
 20
-435.8277857826
 10
608.564518677
 20
-436.8161092314
 10
609.3705555282
 20
-437.3963828216
  0
LWPOLYLINE
  5
1B1
330
1F
100
AcDbEntity
  8
0
  6
Continuous
 62
     1
370
    25
100
AcDbPolyline
 90
       21
 70
   128
 43
0.0
 10
685.073803141
 20
-253.1035298883
 10
684.8001664757
 20
-252.9583352088
 10
683.6020911492
 20
-252.5731534185
 10
682.2668716425
 20
-252.5095451352
 10
680.8309292631
 20
-252.769245427
 10
679.333432776
 20
-253.345170347
 10
677.8152299816
 20
-254.2216101646
 10
676.3177334945
 20
-255.3746578865
 10
674.8817911151
 20
-256.7728613764
 10
673.5465716085
 20
-258.378081288
 10
672.3484962819
 20
-260.1465314067
 10
671.3202455073
 20
-262.0299730231
 10
670.4898672852
 20
-263.9770307598
 10
669.880012169
 20
-265.9345939574
 10
669.5073154164
 20
-267.8492653946
 10
669.3819432234
 20
-269.6688178261
 10
669.5073154164
 20
-271.3436186045
 10
669.880012169
 20
-272.8279835306
 10
670.4898672852
 20
-274.0814229987
 10
671.3202455073
 20
-275.0697464475
 10
672.1262823585
 20
-275.6500200377
  0
LWPOLYLINE
  5
1B2
330
1F
100
AcDbEntity
  8
0
  6
Continuous
 62
     1
370
    25
100
AcDbPolyline
 90
       21
 70
   128
 43
0.0
 10
559.5623494803
 20
-470.4957439223
 10
559.2887128151
 20
-470.3505492428
 10
558.0906374885
 20
-469.9653674525
 10
556.7554179819
 20
-469.9017591692
 10
555.3194756025
 20
-470.161459461
 10
553.8219791154
 20
-470.737384381
 10
552.303776321
 20
-471.6138241986
 10
550.8062798339
 20
-472.7668719205
 10
549.3703374545
 20
-474.1650754104
 10
548.0351179478
 20
-475.770295322
 10
546.8370426213
 20
-477.5387454406
 10
545.8087918467
 20
-479.4221870571
 10
544.9784136246
 20
-481.3692447938
 10
544.3685585084
 20
-483.3268079913
 10
543.9958617558
 20
-485.2414794286
 10
543.8704895628
 20
-487.0610318601
 10
543.9958617558
 20
-488.7358326385
 10
544.3685585084
 20
-490.2201975646
 10
544.9784136246
 20
-491.4736370327
 10
545.8087918467
 20
-492.4619604814
 10
546.6148286978
 20
-493.0422340717
  0
LWPOLYLINE
  5
1B3
330
1F
100
AcDbEntity
  8
0
  6
Continuous
 62
     1
370
    25
100
AcDbPolyline
 90
       21
 70
   128
 43
0.0
 10
668.2584568163
 20
-190.3428256411
 10
667.9848201511
 20
-190.1976309616
 10
666.7867448246
 20
-189.8124491713
 10
665.4515253179
 20
-189.748840888
 10
664.0155829385
 20
-190.0085411798
 10
662.5180864514
 20
-190.5844660998
 10
660.999883657
 20
-191.4609059174
 10
659.5023871699
 20
-192.6139536393
 10
658.0664447905
 20
-194.0121571292
 10
656.7312252839
 20
-195.6173770408
 10
655.5331499573
 20
-197.3858271594
 10
654.5048991827
 20
-199.2692687759
 10
653.6745209606
 20
-201.2163265126
 10
653.0646658444
 20
-203.1738897101
 10
652.6919690918
 20
-205.0885611474
 10
652.5665968988
 20
-206.9081135789
 10
652.6919690918
 20
-208.5829143573
 10
653.0646658444
 20
-210.0672792834
 10
653.6745209606
 20
-211.3207187515
 10
654.5048991827
 20
-212.3090422002
 10
655.3109360339
 20
-212.8893157905
  0
LWPOLYLINE
  5
1B4
330
1F
100
AcDbEntity
  8
0
  6
Continuous
 62
     1
370
    25
100
AcDbPolyline
 90
       21
 70
   128
 43
0.0
 10
496.80662265
 20
-487.3061125964
 10
496.5329859848
 20
-487.160917917
 10
495.3349106582
 20
-486.7757361267
 10
493.9996911516
 20
-486.7121278433
 10
492.5637487722
 20
-486.9718281352
 10
491.0662522851
 20
-487.5477530551
 10
489.5480494907
 20
-488.4241928728
 10
488.0505530036
 20
-489.5772405946
 10
486.6146106242
 20
-490.9754440845
 10
485.2793911175
 20
-492.5806639962
 10
484.081315791
 20
-494.3491141148
 10
483.0530650163
 20
-496.2325557313
 10
482.2226867943
 20
-498.179613468
 10
481.6128316781
 20
-500.1371766655
 10
481.2401349255
 20
-502.0518481028
 10
481.1147627325
 20
-503.8714005342
 10
481.2401349255
 20
-505.5462013127
 10
481.6128316781
 20
-507.0305662388
 10
482.2226867943
 20
-508.2840057069
 10
483.0530650163
 20
-509.2723291556
 10
483.8591018675
 20
-509.8526027459
  0
LWPOLYLINE
  5
1B5
330
1F
100
AcDbEntity
  8
0
  6
Continuous
 62
     1
370
    25
100
AcDbPolyline
 90
       21
 70
   128
 43
0.0
 10
622.3180763106
 20
-163.8133870286
 10
622.0444396454
 20
-163.6681923492
 10
620.8463643189
 20
-163.2830105589
 10
619.5111448122
 20
-163.2194022755
 10
618.0752024328
 20
-163.4791025673
 10
616.5777059457
 20
-164.0550274873
 10
615.0595031513
 20
-164.931467305
 10
613.5620066642
 20
-166.0845150268
 10
612.1260642848
 20
-167.4827185167
 10
610.7908447782
 20
-169.0879384283
 10
609.5927694516
 20
-170.856388547
 10
608.564518677
 20
-172.7398301635
 10
607.7341404549
 20
-174.6868879002
 10
607.1242853387
 20
-176.6444510977
 10
606.7515885861
 20
-178.559122535
 10
606.6262163931
 20
-180.3786749664
 10
606.7515885861
 20
-182.0534757449
 10
607.1242853387
 20
-183.537840671
 10
607.7341404549
 20
-184.791280139
 10
608.564518677
 20
-185.7796035878
 10
609.3705555282
 20
-186.359877178
  0
LWPOLYLINE
  5
1B6
330
1F
100
AcDbEntity
  8
0
  6
Continuous
 62
     1
370
    25
100
AcDbPolyline
 90
       21
 70
   128
 43
0.0
 10
450.8662421443
 20
-460.776673984
 10
450.5926054791
 20
-460.6314793046
 10
449.3945301525
 20
-460.2462975142
 10
448.0593106459
 20
-460.1826892309
 10
446.6233682665
 20
-460.4423895227
 10
445.1258717794
 20
-461.0183144427
 10
443.607668985
 20
-461.8947542604
 10
442.1101724979
 20
-463.0478019822
 10
440.6742301185
 20
-464.4460054721
 10
439.3390106118
 20
-466.0512253837
 10
438.1409352853
 20
-467.8196755024
 10
437.1126845106
 20
-469.7031171188
 10
436.2823062886
 20
-471.6501748556
 10
435.6724511724
 20
-473.6077380531
 10
435.2997544198
 20
-475.5224094904
 10
435.1743822268
 20
-477.3419619218
 10
435.2997544198
 20
-479.0167627003
 10
435.6724511724
 20
-480.5011276264
 10
436.2823062886
 20
-481.7545670944
 10
437.1126845106
 20
-482.7428905432
 10
437.9187213618
 20
-483.3231641334
  0
LWPOLYLINE
  5
1B7
330
1F
100
AcDbEntity
  8
0
  6
Continuous
 62
     1
370
    25
100
AcDbPolyline
 90
       21
 70
   128
 43
0.0
 10
559.5623494803
 20
-180.6237557028
 10
559.2887128151
 20
-180.4785610234
 10
558.0906374886
 20
-180.093379233
 10
556.7554179819
 20
-180.0297709497
 10
555.3194756025
 20
-180.2894712415
 10
553.8219791154
 20
-180.8653961615
 10
552.303776321
 20
-181.7418359792
 10
550.8062798339
 20
-182.894883701
 10
549.3703374545
 20
-184.2930871909
 10
548.0351179478
 20
-185.8983071025
 10
546.8370426213
 20
-187.6667572212
 10
545.8087918467
 20
-189.5501988376
 10
544.9784136246
 20
-191.4972565744
 10
544.3685585084
 20
-193.4548197719
 10
543.9958617558
 20
-195.3694912092
 10
543.8704895628
 20
-197.1890436406
 10
543.9958617558
 20
-198.863844419
 10
544.3685585084
 20
-200.3482093452
 10
544.9784136246
 20
-201.6016488132
 10
545.8087918467
 20
-202.589972262
 10
546.6148286979
 20
-203.1702458522
  0
LWPOLYLINE
  5
1B8
330
1F
100
AcDbEntity
  8
0
  6
Continuous
 62
     1
370
    25
100
AcDbPolyline
 90
       21
 70
   128
 43
0.0
 10
434.0508958197
 20
-398.0159697368
 10
433.7772591545
 20
-397.8707750574
 10
432.5791838279
 20
-397.485593267
 10
431.2439643212
 20
-397.4219849837
 10
429.8080219419
 20
-397.6816852755
 10
428.3105254548
 20
-398.2576101955
 10
426.7923226604
 20
-399.1340500132
 10
425.2948261733
 20
-400.287097735
 10
423.8588837939
 20
-401.6853012249
 10
422.5236642872
 20
-403.2905211365
 10
421.3255889607
 20
-405.0589712552
 10
420.297338186
 20
-406.9424128716
 10
419.466959964
 20
-408.8894706083
 10
418.8571048478
 20
-410.8470338059
 10
418.4844080952
 20
-412.7617052432
 10
418.3590359022
 20
-414.5812576746
 10
418.4844080952
 20
-416.256058453
 10
418.8571048478
 20
-417.7404233792
 10
419.466959964
 20
-418.9938628472
 10
420.297338186
 20
-419.982186296
 10
421.1033750372
 20
-420.5624598862
  0
LWPOLYLINE
  5
1B9
330
1F
100
AcDbEntity
  8
0
  6
Continuous
 62
     1
370
    25
100
AcDbPolyline
 90
       21
 70
   128
 43
0.0
 10
496.80662265
 20
-236.2696069529
 10
496.5329859848
 20
-236.1244122734
 10
495.3349106583
 20
-235.7392304831
 10
493.9996911516
 20
-235.6756221998
 10
492.5637487722
 20
-235.9353224916
 10
491.0662522851
 20
-236.5112474116
 10
489.5480494907
 20
-237.3876872292
 10
488.0505530036
 20
-238.5407349511
 10
486.6146106242
 20
-239.938938441
 10
485.2793911175
 20
-241.5441583526
 10
484.081315791
 20
-243.3126084713
 10
483.0530650164
 20
-245.1960500877
 10
482.2226867943
 20
-247.1431078244
 10
481.6128316781
 20
-249.100671022
 10
481.2401349255
 20
-251.0153424593
 10
481.1147627325
 20
-252.8348948907
 10
481.2401349255
 20
-254.5096956691
 10
481.6128316781
 20
-255.9940605952
 10
482.2226867943
 20
-257.2475000633
 10
483.0530650164
 20
-258.2358235121
 10
483.8591018675
 20
-258.8160971023
  0
LWPOLYLINE
  5
1BA
330
1F
100
AcDbEntity
  8
0
  6
Continuous
 62
     1
370
    25
100
AcDbPolyline
 90
       21
 70
   128
 43
0.0
 10
450.8662421443
 20
-315.8406798743
 10
450.5926054791
 20
-315.6954851948
 10
449.3945301525
 20
-315.3103034045
 10
448.0593106459
 20
-315.2466951212
 10
446.6233682665
 20
-315.506395413
 10
445.1258717794
 20
-316.082320333
 10
443.607668985
 20
-316.9587601506
 10
442.1101724979
 20
-318.1118078725
 10
440.6742301185
 20
-319.5100113624
 10
439.3390106118
 20
-321.115231274
 10
438.1409352853
 20
-322.8836813927
 10
437.1126845107
 20
-324.7671230091
 10
436.2823062886
 20
-326.7141807458
 10
435.6724511724
 20
-328.6717439433
 10
435.2997544198
 20
-330.5864153806
 10
435.1743822268
 20
-332.4059678121
 10
435.2997544198
 20
-334.0807685905
 10
435.6724511724
 20
-335.5651335166
 10
436.2823062886
 20
-336.8185729847
 10
437.1126845107
 20
-337.8068964334
 10
437.9187213618
 20
-338.3871700237
  0
ENDSEC
  0
SECTION
  2
OBJECTS
  0
DICTIONARY
  5
C
330
0
100
AcDbDictionary
281
     1
  3
ACAD_GROUP
350
D
  3
ACAD_LAYOUT
350
1A
  3
ACAD_MLINESTYLE
350
17
  3
ACAD_PLOTSETTINGS
350
19
  3
ACAD_PLOTSTYLENAME
350
E
  3
ACAD_SCALELIST
350
47
  3
DWGPROPS
350
1BB
  0
DICTIONARY
  5
D
102
{ACAD_REACTORS
330
C
102
}
330
C
100
AcDbDictionary
281
     1
  0
DICTIONARY
  5
1A
102
{ACAD_REACTORS
330
C
102
}
330
C
100
AcDbDictionary
281
     1
  3
Layout1
350
1E
  3
Layout2
350
26
  3
Model
350
22
  0
DICTIONARY
  5
17
102
{ACAD_REACTORS
330
C
102
}
330
C
100
AcDbDictionary
281
     1
  3
Standard
350
18
  0
DICTIONARY
  5
19
102
{ACAD_REACTORS
330
C
102
}
330
C
100
AcDbDictionary
281
     1
  0
ACDBDICTIONARYWDFLT
  5
E
102
{ACAD_REACTORS
330
C
102
}
330
C
100
AcDbDictionary
281
     1
  3
Normal
350
F
100
AcDbDictionaryWithDefault
340
F
  0
DICTIONARY
  5
47
102
{ACAD_REACTORS
330
C
102
}
330
C
100
AcDbDictionary
281
     1
  3
A0
350
48
  3
A1
350
49
  3
A2
350
4A
  3
A3
350
4B
  3
A4
350
4C
  3
A5
350
4D
  3
A6
350
4E
  3
A7
350
4F
  3
A8
350
50
  3
A9
350
51
  3
B0
350
52
  3
B1
350
53
  3
B2
350
54
  3
B3
350
55
  3
B4
350
56
  3
B5
350
57
  3
B6
350
58
  3
B7
350
59
  3
B8
350
5A
  3
B9
350
5B
  3
C0
350
5C
  3
C1
350
5D
  3
C2
350
5E
  3
C3
350
5F
  3
C4
350
60
  3
C5
350
61
  3
C6
350
62
  3
C7
350
63
  3
C8
350
64
  3
C9
350
65
  3
D0
350
66
  3
D1
350
67
  3
D2
350
68
  0
XRECORD
  5
1BB
102
{ACAD_REACTORS
330
C
102
}
330
C
100
AcDbXrecord
280
     1
  1
DWGPROPS COOKIE
  2

  3

  4

  6

  7

  8
b.kav
  9

300
=
301
=
302
=
303
=
304
=
305
=
306
=
307
=
308
=
309
=
 40
0.0
 41
2459741.467544618
 42
2459741.467547118
  1

 90
        0
  0
LAYOUT
  5
1E
102
{ACAD_REACTORS
330
1A
102
}
330
1A
100
AcDbPlotSettings
  1

  2
none_device
  4

  6

 40
0.0
 41
0.0
 42
0.0
 43
0.0
 44
0.0
 45
0.0
 46
0.0
 47
0.0
 48
0.0
 49
0.0
140
0.0
141
0.0
142
1.0
143
1.0
 70
   688
 72
     1
 73
     0
 74
     5
  7

 75
    16
147
1.0
148
0.0
149
0.0
100
AcDbLayout
  1
Layout1
 70
     1
 71
     1
 10
0.0
 20
0.0
 11
420.0
 21
297.0
 12
0.0
 22
0.0
 32
0.0
 14
1.0000000000E+20
 24
1.0000000000E+20
 34
1.0000000000E+20
 15
-1.0000000000E+20
 25
-1.0000000000E+20
 35
-1.0000000000E+20
146
0.0
 13
0.0
 23
0.0
 33
0.0
 16
1.0
 26
0.0
 36
0.0
 17
0.0
 27
1.0
 37
0.0
 76
     0
330
1B
  0
LAYOUT
  5
26
102
{ACAD_REACTORS
330
1A
102
}
330
1A
100
AcDbPlotSettings
  1

  2
none_device
  4

  6

 40
0.0
 41
0.0
 42
0.0
 43
0.0
 44
0.0
 45
0.0
 46
0.0
 47
0.0
 48
0.0
 49
0.0
140
0.0
141
0.0
142
1.0
143
1.0
 70
   688
 72
     1
 73
     0
 74
     5
  7

 75
    16
147
1.0
148
0.0
149
0.0
100
AcDbLayout
  1
Layout2
 70
     1
 71
     2
 10
0.0
 20
0.0
 11
0.0
 21
0.0
 12
0.0
 22
0.0
 32
0.0
 14
0.0
 24
0.0
 34
0.0
 15
0.0
 25
0.0
 35
0.0
146
0.0
 13
0.0
 23
0.0
 33
0.0
 16
1.0
 26
0.0
 36
0.0
 17
0.0
 27
1.0
 37
0.0
 76
     0
330
23
  0
LAYOUT
  5
22
102
{ACAD_REACTORS
330
1A
102
}
330
1A
100
AcDbPlotSettings
  1

  2
none_device
  4
Letter_(8.50_x_11.00_Inches)
  6

 40
6.35
 41
6.35
 42
6.35000508
 43
6.35000508
 44
215.9
 45
279.4
 46
0.0
 47
0.0
 48
0.0
 49
0.0
140
0.0
141
0.0
142
1.0
143
1.0
 70
  1712
 72
     1
 73
     0
 74
     0
  7

 75
     0
147
1.0
148
0.0
149
0.0
100
AcDbLayout
  1
Model
 70
     1
 71
     0
 10
0.0
 20
0.0
 11
279.4
 21
215.9
 12
0.0
 22
0.0
 32
0.0
 14
0.0
 24
0.0
 34
0.0
 15
279.4
 25
215.9
 35
0.0
146
0.0
 13
0.0
 23
0.0
 33
0.0
 16
1.0
 26
0.0
 36
0.0
 17
0.0
 27
1.0
 37
0.0
 76
     0
330
1F
331
29
  0
MLINESTYLE
  5
18
102
{ACAD_REACTORS
330
17
102
}
330
17
100
AcDbMlineStyle
  2
Standard
 70
     0
  3

 62
   256
 51
90.0
 52
90.0
 71
     2
 49
0.5
 62
   256
  6
BYLAYER
 49
-0.5
 62
   256
  6
BYLAYER
  0
ACDBPLACEHOLDER
  5
F
102
{ACAD_REACTORS
330
E
102
}
330
E
  0
SCALE
  5
48
102
{ACAD_REACTORS
330
47
102
}
330
47
100
AcDbScale
 70
     0
300
1:1
140
1.0
141
1.0
290
     1
  0
SCALE
  5
49
102
{ACAD_REACTORS
330
47
102
}
330
47
100
AcDbScale
 70
     0
300
1:2
140
1.0
141
2.0
290
     0
  0
SCALE
  5
4A
102
{ACAD_REACTORS
330
47
102
}
330
47
100
AcDbScale
 70
     0
300
1:4
140
1.0
141
4.0
290
     0
  0
SCALE
  5
4B
102
{ACAD_REACTORS
330
47
102
}
330
47
100
AcDbScale
 70
     0
300
1:5
140
1.0
141
5.0
290
     0
  0
SCALE
  5
4C
102
{ACAD_REACTORS
330
47
102
}
330
47
100
AcDbScale
 70
     0
300
1:8
140
1.0
141
8.0
290
     0
  0
SCALE
  5
4D
102
{ACAD_REACTORS
330
47
102
}
330
47
100
AcDbScale
 70
     0
300
1:10
140
1.0
141
10.0
290
     0
  0
SCALE
  5
4E
102
{ACAD_REACTORS
330
47
102
}
330
47
100
AcDbScale
 70
     0
300
1:16
140
1.0
141
16.0
290
     0
  0
SCALE
  5
4F
102
{ACAD_REACTORS
330
47
102
}
330
47
100
AcDbScale
 70
     0
300
1:20
140
1.0
141
20.0
290
     0
  0
SCALE
  5
50
102
{ACAD_REACTORS
330
47
102
}
330
47
100
AcDbScale
 70
     0
300
1:30
140
1.0
141
30.0
290
     0
  0
SCALE
  5
51
102
{ACAD_REACTORS
330
47
102
}
330
47
100
AcDbScale
 70
     0
300
1:40
140
1.0
141
40.0
290
     0
  0
SCALE
  5
52
102
{ACAD_REACTORS
330
47
102
}
330
47
100
AcDbScale
 70
     0
300
1:50
140
1.0
141
50.0
290
     0
  0
SCALE
  5
53
102
{ACAD_REACTORS
330
47
102
}
330
47
100
AcDbScale
 70
     0
300
1:100
140
1.0
141
100.0
290
     0
  0
SCALE
  5
54
102
{ACAD_REACTORS
330
47
102
}
330
47
100
AcDbScale
 70
     0
300
2:1
140
2.0
141
1.0
290
     0
  0
SCALE
  5
55
102
{ACAD_REACTORS
330
47
102
}
330
47
100
AcDbScale
 70
     0
300
4:1
140
4.0
141
1.0
290
     0
  0
SCALE
  5
56
102
{ACAD_REACTORS
330
47
102
}
330
47
100
AcDbScale
 70
     0
300
8:1
140
8.0
141
1.0
290
     0
  0
SCALE
  5
57
102
{ACAD_REACTORS
330
47
102
}
330
47
100
AcDbScale
 70
     0
300
10:1
140
10.0
141
1.0
290
     0
  0
SCALE
  5
58
102
{ACAD_REACTORS
330
47
102
}
330
47
100
AcDbScale
 70
     0
300
100:1
140
100.0
141
1.0
290
     0
  0
SCALE
  5
59
102
{ACAD_REACTORS
330
47
102
}
330
47
100
AcDbScale
 70
     0
300
1/128" = 1'-0"
140
0.0078125
141
12.0
290
     0
  0
SCALE
  5
5A
102
{ACAD_REACTORS
330
47
102
}
330
47
100
AcDbScale
 70
     0
300
1/64" = 1'-0"
140
0.015625
141
12.0
290
     0
  0
SCALE
  5
5B
102
{ACAD_REACTORS
330
47
102
}
330
47
100
AcDbScale
 70
     0
300
1/32" = 1'-0"
140
0.03125
141
12.0
290
     0
  0
SCALE
  5
5C
102
{ACAD_REACTORS
330
47
102
}
330
47
100
AcDbScale
 70
     0
300
1/16" = 1'-0"
140
0.0625
141
12.0
290
     0
  0
SCALE
  5
5D
102
{ACAD_REACTORS
330
47
102
}
330
47
100
AcDbScale
 70
     0
300
3/32" = 1'-0"
140
0.09375
141
12.0
290
     0
  0
SCALE
  5
5E
102
{ACAD_REACTORS
330
47
102
}
330
47
100
AcDbScale
 70
     0
300
1/8" = 1'-0"
140
0.125
141
12.0
290
     0
  0
SCALE
  5
5F
102
{ACAD_REACTORS
330
47
102
}
330
47
100
AcDbScale
 70
     0
300
3/16" = 1'-0"
140
0.1875
141
12.0
290
     0
  0
SCALE
  5
60
102
{ACAD_REACTORS
330
47
102
}
330
47
100
AcDbScale
 70
     0
300
1/4" = 1'-0"
140
0.25
141
12.0
290
     0
  0
SCALE
  5
61
102
{ACAD_REACTORS
330
47
102
}
330
47
100
AcDbScale
 70
     0
300
3/8" = 1'-0"
140
0.375
141
12.0
290
     0
  0
SCALE
  5
62
102
{ACAD_REACTORS
330
47
102
}
330
47
100
AcDbScale
 70
     0
300
1/2" = 1'-0"
140
0.5
141
12.0
290
     0
  0
SCALE
  5
63
102
{ACAD_REACTORS
330
47
102
}
330
47
100
AcDbScale
 70
     0
300
3/4" = 1'-0"
140
0.75
141
12.0
290
     0
  0
SCALE
  5
64
102
{ACAD_REACTORS
330
47
102
}
330
47
100
AcDbScale
 70
     0
300
1" = 1'-0"
140
1.0
141
12.0
290
     0
  0
SCALE
  5
65
102
{ACAD_REACTORS
330
47
102
}
330
47
100
AcDbScale
 70
     0
300
1-1/2" = 1'-0"
140
1.5
141
12.0
290
     0
  0
SCALE
  5
66
102
{ACAD_REACTORS
330
47
102
}
330
47
100
AcDbScale
 70
     0
300
3" = 1'-0"
140
3.0
141
12.0
290
     0
  0
SCALE
  5
67
102
{ACAD_REACTORS
330
47
102
}
330
47
100
AcDbScale
 70
     0
300
6" = 1'-0"
140
6.0
141
12.0
290
     0
  0
SCALE
  5
68
102
{ACAD_REACTORS
330
47
102
}
330
47
100
AcDbScale
 70
     0
300
1'-0" = 1'-0"
140
12.0
141
12.0
290
     0
  0
ENDSEC
  0
EOF
